Black Lab - Time Ago Chords & Tabs

 

Time Ago Chords & Tabs

Black Lab Chords & Tabs

Version: 1 Type: Bass Tab 0 ratings
1 star 2 stars 3 stars 4 stars 5 stars
comments

Time Ago Bass Tab

  BTAB: Time Ago 
Artist: Black Lab
 Album: Your Body Above Me
Author: Rattman (jratt0@hotmail.com)

**Padrino's Bass Tab Exclusive!**

Intro(also played after first verse):

G-------------------------------------------------
D-------------------------------------------------
A-3-3-3-3-3-3-3-3-0-0-0-0-0-0-0-0-----------------
E---------------------------------1-1-1-1-1-1-1-1-

Verse:
G-------------------------------------------------
D-------------------------------------------------
A-3-3-3-3-3-3-3-3-0-0-0-0-0-0-0-0-----------------
E---------------------------------3-3-3-3-3-3-3-3-

Chorus:
[ Tab from: http://www.guitartabs.cc/tabs/b/black_lab/time_ago_btab.html ]
"All by ourselves..."
G-----------------------------------------------------------------
D-----------------------------------------------------------------
A-----------------3-3-3-3-3-3-3-3-----------------0-0-0-0-0-0-0-0-
E-1-1-1-1-1-1-1-1-----------------3-3-3-3-3-3-3-3-----------------

"..well it was..."
G----------------------
D----------------------
A-3-3--0-0-------3-----
E-----------1-1-----3--


Bridge:
"Couldn't stop you cryin..."
G------------------------------------------------------------------------
D------------------------------------------------------------------------
A-------5----------5-------------------3-3-3-3-3-3-3-3-------------------
E-5\--3---3--5\--3---3-1-1-1-1-1-1-1-1-----------------3-3-3-3-3-3-3-3-3-

Remember that the intro and verse parts sound almost the same but change at
end from C to F. 


Taken from Padrino's Bass Tab Archive: http://members.xoom.com/jszalma/

Comments