Black Lab - Learn To Crawl Chords & Tabs

 

Learn To Crawl Chords & Tabs

Black Lab Chords & Tabs

Version: 1 Type: Tab 0 ratings
1 star 2 stars 3 stars 4 stars 5 stars
comments

Learn To Crawl Tab

   
Artist:Black Lab
Song:Learn to Crawl
Tabbed by: Wade Bennett 
E-mail:capt_winkie71@hotmail.com

The verse is the same thing as the intro, but in the first half of
each verse you palm mute the open A's. The intro is also used as
a post-chorus.

    Intro
e|---------------------------------------------------------|
b|---------------------------------------------------------|
G|---------------------------------------------------------|
D|---------------------------------------------------------|
A|--0-0--0-12--0-0-10---0-0--0-9--0-5----0h4h5p4-----------|
E|------------------------------------------------3--------|
[ Tab from: http://www.guitartabs.cc/tabs/b/black_lab/learn_to_crawl_tab.html ]
   pre-chorus          Chorus
e|1----3----1----3---|--0-----0-----3-----1------|
b|2----3----2----3---|--1-----1-----3-----1------|
G|3----0----3----0---|--2-----0-----0-----2------|
D|3----0----3----0---|--2-----2-----0-----3------|
A|3----2----3----2---|--0-----3-----2-----3------|
E|1----3----1----3---|--------------3-----1------|

   pre-bridge
e|--------------------------------------------|
b|--------------------------------------------|
G|--------------------------------------------|
D|--------------------------------------------|
A|--0-0--0-12--0-0-10---0-0--0-12--0-0-10-----|
E|--------------------------------------------|

    Bridge
e|--0~~0---------------1~~1---------------0~~0--------------|
b|--1~~1---------------1~~1---------------3~~3--------------|
G|--2~~2--2p0----------2~~2--2p0----------2~~2--2p0---------|
D|--2~~2------0h2------3~~3------0h2------0~~0------0h2-----|
A|--0~~0----------3p0--3~~3----------3p0----------------3p0-|
E|---------------------1~~1---------------------------------|

e|--1~~1--3---------------|
b|--1~~1--3---------------|
G|--2~~2--4--2p0----------|
D|--3~~3--5------0h2------|
A|--3~~3--5----------3p0--|
E|--1~~1--3---------------|
Comments