Black Keys - Till I Get My Way Chords & Tabs

 

Till I Get My Way Chords & Tabs

Black Keys Chords & Tabs

Version: 1 Type: Tab 1 rating
1 star 2 stars 3 stars 4 stars 5 stars
comments

Till I Get My Way Tab

well this is my first ever tab. I've been looking for a tab to this song for ages but
havnt found anything, so i tabbed it myself. please rate.



INTRO

  {------------hold bend------------}
E---------------------------------------------------------------]
B---------------------------------------------------------------]
G---------------------------------------------------------------]
D---------------------------------------------------------------]
AŚ-9b-9--9--9--9--9--9--9--9--9--9--9---------------------------]
E--------------------------------------7b-----------------------]

E---------------------------------------------------------------]
B---------------------------------------------------------------]
G---------------------------------------------------------------]
D---------------------------------------------------------------](x2)
A---------7h9-7-----------3h5-3-----------7h9-7-----------3h5-3-]
E--7--7-7----------5--5-5----------7--7-7----------5--5-5-------]


MAIN RIFF
[ Tab from: http://www.guitartabs.cc/tabs/b/black_keys/till_i_get_my_way_tab.html ]
E---------------------------------------------------------------]
B---------------------------------------------------------------]
G---------------------------------------------------------------]
D---------------------------------------------------------------](x2)
A-------9-7----------5h7------------9-7----------5h7------------]
E--7--7---------5--5-----5-----7--7---------5--5-----5----------]

E-------------------------------------------]
B-------------------------------------------]
G-------------------------------------------]
D-------------------------------------------]
AŚ------7-7--7--------7---------------------]
E--7-7---------5--5-5---7-------------------]


SOLO 1

E---------------------------------------------------------------]
B-----9h11-9-----------------------9-11-9-11-9------------------]
G--10--------10b----9b-9b-9b----11-------------11----9b-9b-9b---]
D---------------------------------------------------------------]
AŚ--------------------------------------------------------------]
E---------------------------------------------------------------]

for any corrections please email me at soso_def07@hotmail.com
Comments