Black Keys - Thickfreakness Chords & Tabs

 

Thickfreakness Chords & Tabs

Black Keys Chords & Tabs

Version: 2 Type: Tab 0 ratings
1 star 2 stars 3 stars 4 stars 5 stars
comments

Thickfreakness Tab

   
This is the first time I tab anything... it probably sucks ass, and it doesn't help that
I don't have a copy of the song to listen to. It sounds good to me... and if you don't,
I've with it. I think it's better than the crap I found.

Riff A

A.1

E  |---------------------------|
B  |---------------------------|
G  |---------------------------|
D  |5s7-5----------------------|
A  |------7-5-7-3-5-5s3-0------|
E  |----------------------3-5--|

A.2

E  |---------------------------------|
B  |---------------------------------|
G  |---------------------------------|
D  |5s7-5----------------------------|
A  |------7-5-7-3-5-3s5-3s5-5s3-0----|
E  |------------------------------3--|

A.3

E  |------------------------|
B  |------------------------|
G  |------------------------|
D  |5s7-5-------------------|
A  |------7-5-7-3-5-5s7s10--|
E  |------------------------|



Riff B

B.1

E  |----------------------|
B  |----------------------|
G  |----------------------|
D  |--7---7---7--7-----5--|
A  |--7---7---7--7-----5--|
E  |5---5---5------5-3----|

B.2

E  |------------------------|
B  |------------------------|
G  |------------------------|
D  |--7---7---7--7-5--------|
A  |--7---7---7------7-5----|
E  |5---5---5------------8--|

B.3
[ Tab from: http://www.guitartabs.cc/tabs/b/black_keys/thickfreakness_tab_ver_2.html ]
E  |------------------------|
B  |------------------------|
G  |------------------------|
D  |--7---7---7-*7-*-*---*--|
A  |--7---7---7-*7-*-*---*--|
E  |5---5---5---*-5*-*3-2*--|



Chorus

E  |---------------------------------------|
B  |--------------------------5s8-5--------|
G  |--5-7-5-----5-----------5-------7p5----|
D  |7---7-7-5h7---7-------7-------------7--|
A  |--------------------0------------------|
E  |----------------8-8--------------------|



Bridge

E  |--------------------------|
B  |--------------------------|
G  |9--7-----7--5--7s9-7s5----|
D  |9--7-----7--5----------7--|
A  |--------------------------|
E  |-----0-3------------------|



Under Solo

E  |-------------------|
B  |-------------------|
G  |-------------------|
D  |7xxx7x5xxx5x7xxxx--|
A  |7xxx7x5xxx5x7xxxx--|
E  |5xxx5x3xxx3x5xxxx--|



Bridge 2

E  |----------------|
B  |-------------7--|
G  |-------------7--|
D  |7p5----------7--|
A  |----7p5-3-0-----|
E  |----------------|



End Riff

E  |-----------------------------|
B  |-----------------------------|
G  |-----------------------------|
D  |5s7-5------------------------|
A  |------7-5-7-3-5-5s7-5-3------|
E  |------------------------3-5--|



Riff A
Riff B
Chorus
Riff B *
Chorus
Riff B **
Bridge
Riff B.1
Riff B.3 **
Riff A
Under Solo X 4
Bridge 2
Chorus
Riff B *
Chorus
Riff B **
Bridge
Riff B.1
Riff B.3 **
Riff A.1,2  X 2
Riff A.1
End Riff

* means first part in stars
** means both parts
Comments