Black Keys - Stack Shot Billy Chords & Tabs

 

Stack Shot Billy Chords & Tabs

Black Keys Chords & Tabs

Version: 1 Type: Tab 0 ratings
1 star 2 stars 3 stars 4 stars 5 stars
comments

Stack Shot Billy Tab

   
=======================
Band- The Black Keys
Album - Rubber Factory
Song - Stack Shot Billy
=======================
Standard Tuning

The actual song is played half a step down in A minor, but I find it easier to play in A.
=======================

Verse

e|--------------------------|
b|-5---------------5--------|
g|---7-5-------5-7---5------|
d|-------7-5-7---------5h7--|
a|-0-0-0-------------0------|
e|--------------------------|

e|-------------------------|
b|-5-----------------------|
g|---7-5-------5-7-5-5p2---|
d|-------7-5-7-------------|
a|-0-0-0---------0-0-0-----| Repeat
e|-------------------------|

Chorus

e|------------5-3-----------|
b|----------------5-4-3-----|
g|-7-7-7-5--------------2---|
d|-7-7-7-5------------------|
a|-5-5-5-3--0---------------|
e|--------------------------|
[ Tab from: http://www.guitartabs.cc/tabs/b/black_keys/stack_shot_billy_tab.html ]
e|--------------------------|
b|--------------------------|
g|-7-7-7-5----7-5---5---5---|
d|-7-7-7-5--------7---7-----|
a|-5-5-5-3--0---------------|
e|--------------------------|

e|--------------------------|
b|--------------------------|
g|-7-7-7-5----7-5-----------|
d|-7-7-7-5--------7-5-7-----|
a|-5-5-5-3--0---------------|
e|--------------------------|

e|--------------------------|
b|-9-7-5--------------------|
g|-------7-/7---------------|
d---------------------------|
a|--------------------------|
e|--------------------------|

Verse

Stack shot Billy in the back of the head
Stack made sure Billy Lyons was dead
.45 pistol in Stack's right hand
Sent him away to the promised land

Chorus

Stack shot Billy
.45
Stack shot Billy
Billy laid down and died

Verse

Stack Lee had himself an evil brain
Loved his gun and his sweet cocaine
Stack got quiet when the shadows fell
Knew soon enough that he'd burn in hell

Chorus

Stack shot Billy
.45
Stack shot Billy
Billy laid down and died

==============================

| /  slide up
| \  slide down
| h  hammer-on
| p  pull-off
| ~  vibrato
| +  harmonic
| x  Mute note
Comments