Black Keys - Set You Free Chords & Tabs

 

Set You Free Chords & Tabs

Black Keys Chords & Tabs

Version: 1 Type: Tab 2 ratings
1 star 2 stars 3 stars 4 stars 5 stars
comments

Set You Free Tab

   
Hey, this is my first tab.  I made it because there are no songs by 
the Black Keys, so I decided to change that.  

Intro:    C and A

-----------------------------5-5---
-----------------------------5-5---
-----------------------------6-6---
-10-10-----8h10-10------7-7--7-7---
-10-10--10--------------7-7--------
-8--8-------------------5-5--------


-------------------------------5-5---
------------10^11^10-----------5-5---
---------10-10^11^10-----------6-6---
-10-10---------------10---7-7--7-7---
-10-10--------------------7-7--------
-8--8---------------------5-5--------


For the verse strike each note twice real quick... as if you didn't 
already know that. =)
[ Tab from: http://www.guitartabs.cc/tabs/b/black_keys/set_you_free_tab.html ]
C              A 
   You hold on.     Your love gone.

C              A
   Run 'em out      To see 'em smile.

But you don't know he go door to door
playin' you, for the fool.



Chorus:  

Ok, the 5th chords you need to lightly palm mute so that you get 
the heavy feel, then when you play the higher notes let it off.



 G        A         F         G
-----3--------5---------1---------3---------
-----3--------5---------1---------3---------
-----4--------6---------2---------4---------
-5-5-5-5--7-7-7-7---3-3-3-3---5-5-5-5-------
-5-5---5--7-7---7---3-3---3---5-5---3-------
-3-5---3--5-5---5---1-1---1---3-3---3-------


-=Play intro again=-

-=Back into verse=-

-=Chorus=-

There is a solo I'm still working on, or at least I think.
Comments