Black Keys - Lonely Boy Chords & Tabs

 

Lonely Boy Chords & Tabs

Black Keys Chords & Tabs

Version: 4 Type: Bass Tab 0 ratings
1 star 2 stars 3 stars 4 stars 5 stars
comments

Lonely Boy Bass Tab

-----------------------------------------------------------------------------
                          Lonely Boy - Black Keys
-----------------------------------------------------------------------------

Tabbed by: Ninoss
E-mail: ninouche116@yahoo.fr

Tuning: STANDARD

I play the song this way : an easy way but a funny one

    Intro (0:00-0:16)
G|-----------------------------------------------------------------------------|
D|-----------------------------------------------------------------------------|
A|---7-7-7-7-10---7-7-7-7-7----------------------------------------------------|
E|----------------------------7------------------------------------------------|
[ Tab from: http://www.guitartabs.cc/tabs/b/black_keys/lonely_boy_btab_ver_4.html ]
    Piano part, it rocks on bass   (0:16-0:28)
G|-9-9---9-7-------------------------------------------------------------------|
D|-----------7-5-7-----7-7---7-5-----------------------------------------------|
A|-------------------------------7-5-7-----------------------------------------|
E|-----------------------------------------------------------------------------|

   Bridge (0:28-00:38)           Verse (0:38-1:02)  
G|-------------------------|---------------------------------------------------|
D|--7----------------------|------------------7-7------------------------------|
A|----10-7-----------------|--7-7-7-7-7h10-10----------------------------------|
E|-------------------------|---------------------------------------------------|

   Chorus (1:02-1:25)
G|-----------------------------------------------------------------------------|
D|----------------------------------7-7-7-7-7----------------------------------|
A|-7-7-7-7-7-7-7-7-7-7-10-10-10-10---------------------------------------------|
E|-----------------------------------------------------------------------------|

RECAP :

Intro
Piano part
Bridge
Chorus
Bridge
Verse
Chorus
Intro
Piano part
Chorus

J'espère que vous aimerez , Merci pour les corrections ;)
Hope you enjoy , thanks for the corrections ;)
Comments