Black Keys - Lengths Chords & Tabs

 

Lengths Chords & Tabs

Black Keys Chords & Tabs

Version: 1 Type: Tab 0 ratings
1 star 2 stars 3 stars 4 stars 5 stars
comments

Lengths Tab

   
----------------------------------------------------------------------------			
                        The Lengths - Black Keys
----------------------------------------------------------------------------
Tabbed by:   Vinnie
Email: n_winwood@hotmail.com

Tuning:    Standard EADGBE
Capo on 6th

Intro

e	|-----------------------------------------------|
B	|-----------------1-------1------1----1---------|
G	|-----0------0----0----0h2--0-0h2--0h22p0------|
D	|--0h2----0h2--0h2-----3-------------------3----|
A	|---------3-------------------------------------|
E	|-----------------------------------------------|
[ Tab from: http://www.guitartabs.cc/tabs/b/black_keys/lengths_tab.html ]
e	|--------------------------------3--3--30-0----|
B	|-------------------------1----3/5--5--553-1--|
G	|-----0-------0----0---0h2----------------------|
D	|--0h2-----0h2--0h2----3------------------------|
A	|--3------3-------------------------------------|
E	|-----------------------------------------------|

Verse
		C			     F

e	|----0-----0---0----------0--3p0--------0-------|
B	|----11h3--1h3--3p1----1-------1-1h3---31-----|
G	|---0-----------------2-------------------------|   Repeat
D	|--------------------3--------------------------|
A	|--3--------------------------------------------|
E	|-----------------------------------------------|


Bridge  ("Pain I'm in")

e	|---3----------3----0-----|
B	|---3----------3----1-----|
G	|---4----------4----2-----|	
D	|---6----------6----3-----|
A	|---5----------5----0-----|
E	|---3----------3----------|

| h  hammer-on
| p  pull-off
Comments