Black Keys - Have Love Will Travel Chords & Tabs

 

Have Love Will Travel Chords & Tabs

Black Keys Chords & Tabs

Version: 2 Type: Tab

Have Love Will Travel Tab

   
-------------------------------------------------------------------------------
		  HAVE LOVE WILL TRAVEL - The Black Keys
-------------------------------------------------------------------------------
Tabbed by: R0CKER1220(Dan)
Email: R0CKER1220@bellsouth.net

Tuning: Standard
This is my first TAB, so I apoligize for any mistakes. This is also my first
time trying to TAB something and I think I did prety good. Criticism is welcomed.

e|---------------------------------------------------------------------------|
B|---------------------------------------------------------------------------|
G|-----------5--7--7--5-5/9-7--5--7--5--2--0---------------------------------|
D|---5/7--7------------------------------------------------------------------|
A|---------------------------------------------------------------------------|
E|---------------------------------------------------------------------------|
[ Tab from: http://www.guitartabs.cc/tabs/b/black_keys/have_love_will_travel_tab_ver_2.html ]
e|---------------------------------------------------------------------------|
B|---------------------------------------------------------------------------|
G|-----------5--7--7--5-5/9--------------------------------------------------|
D|---7--7--------------------------------------------------------------------|
A|---------------------------------------3--5--5--3--3/7--7--5--5--3--0------|
E|-------------------------------3/5--5----------------------------------3---|

e|---------------------------------------------------------------------------|
B|---------------------------------------------------------------------------|
G|---------------------------------------------------------------------------|
D|---------------------------------------------------------------------------|
A|--------3--5--5--3--3/7-7-10--12-----------3--5--5--3--3/7--5--3--5--3--0--|
E|3/5--5-----------------------------3/5--5---------------------------------3|

e|---------------------------------------------------------------------------|
B|---------------------------------------------------------------------------|
G|---------------------------------------------------------------------------|
D|---------------------------------------------------------------------------|
A|--------3--5--5--3--3/7-7-10--12-------------------------------------------|
E|3/5--5---------------------------------------------------------------------|

| /  slide up
| \  slide down
| h  hammer-on
| p  pull-off
| ~  vibrato
| +  harmonic
| x  Mute note
===============================================================================