Black Keys - Hard Row Chords & Tabs

 

Hard Row Chords & Tabs

Black Keys Chords & Tabs

Version: 1 Type: Tab 0 ratings
1 star 2 stars 3 stars 4 stars 5 stars
comments

Hard Row Tab

Tabber: BIG_emu
artist: The Black Keys
Song: Hard Row
Album:Thickfreakness
Released: 4/8/03

this is my first ever tab i had some help from my guitar teacher i don't know the solo
as to yet but i will post an updated version later. any feedback corrections would be
apreciated either e mail me @ b.j.davenport@gmail.com or go to
www.emusrockcity.bravehostcom and click on feedback and reply to the topic called
'Hard Row feedback'


Main Riff
|----------------------|
|----------------------|
|----------------------|
|--7--7-5--5-4--4-3--5-|
|--7--7-5--5-4--4-3--5-|
|--5--5-3--3-2--2-1--3-|
[ Tab from: http://www.guitartabs.cc/tabs/b/black_keys/hard_row_tab.html ]
riff 1
|------------------------|
|------------------------|
|------------------------|
|------------------------|
|--7-7-x-5-5-x-4-4-x-2-4-|
|--5-5-x-3-3-x-2-2-x-1-3-|

riff 2
|------------------|
|------------------|
|------------------|
|------------------|
|--7-7-7-7-7-7-7-7-|
|--5-5-5-5-5-5-5-5-|
   * * * * * * * *
Bridge
|---------------------|
|--8-5----------------|
|------5-7-7b9--7-5---|
|-------------------7-|
|---------------------|
|---------------------|

main riff (x9)
riff 1 (x1)
riff 2 (x1)
Bridge (x1)
main riff (x5)
riff 1 (x1)
riff 2 (x1)
Bridge (x1)
main riff (x5)
riff 1 (x3)
Bridge (x1)
solo ? (will post at later date)play riff 1 for duration of solo
main riff (x9)
riff 1 (x3)
Bridge (x1)
main riff (x4)
Comments