Black Keys - Countdown Chords & Tabs

 

Countdown Chords & Tabs

Black Keys Chords & Tabs

Version: 2 Type: Tab 0 ratings
1 star 2 stars 3 stars 4 stars 5 stars
comments

Countdown Tab

   
----------------------------------------------------------------
                             COUNTDOWN - The Black Keys
----------------------------------------------------------------
Tabbed by: Bowen Jones
E-mail: jonesb93@gmail.com

Tuning: Standard

e|--5-----2---5-------------5-----2---5-----------------|
B|------------------------------------------------------|
G|-----------------2---2-------------------2----2-------|
D|-----2-----2-----2-----2-----2-----2-----2-----2------|
A|--0-----0-----0-----0-----0-----0-----0-----0-----0---|
E|------------------------------------------------------|

e|--5-----2---5-------------5-----2---5-----------------|
B|------------------------------------------------------|
G|-----------------2---2-------------------2----2---2---|
D|-----2-----2-----2-----2-----2-----2-----2-----2------|
A|--0-----0-----0-----0-----0-----0-----0-----0-----0---|
E|------------------------------------------------------|

e|--5-----2---5-------------5-----2---5-----------------|
B|------------------------------------------------------|
G|-----------------2---2-------------------2----2-------|
D|-----2-----2-----2-----2-----2-----2-----2-----2------|
A|--0-----0-----0-----0-----0-----0-----0-----0-----0---|
E|------------------------------------------------------|
[ Tab from: http://www.guitartabs.cc/tabs/b/black_keys/countdown_tab_ver_2.html ]
e|--5-----2---5-------------5-----2---5-----------------|
B|------------------------------------------------------|
G|-----------------2---2-------------------2----2-------|
D|-----2-----2-----2-----2-----2-----2-----2-----2------|
A|--0-----0-----0-----0-----0-----0-----0-----0-----0---|
E|------------------------------------------------------|

e|------------------------------------------------------|
B|------------------------------------------------------|
G|--5-x-5-x-5-x-5-x-5-x-5-x-5-x-5-----------------------|
D|--5-x-5-x-5-x-5-x-5-x-5-x-5-x-5-----------------------|
A|--3-x-3-x-3-x-3-x-3-x-3-x-3-x-3-----------------------|
E|------------------------------------------------------|




e|--5---8----5---8----------8---8----5---8--------------|
B|------------------------------------------------------|
G|------------------------------------------------------|
D|-----7-----7-----7-----7-----7-----7-----7-----7------|
A|--5-----5-----5-----5-----5-----5-----5-----5---------|
E|------------------------------------------------------|

e|--8---8----5------------------------------------------|
B|------------------------------------------------------|
G|------------------------------------------------------|
D|-----7-----7------------------------------------------|
A|--5-----5-----5---------------------------------------|
E|------------------------------------------------------|


************************************

| /   slide up
| \   slide down
| h   hammer-on
| p   pull-off
| ~   vibrato
| +   harmonic
| x   Mute note
| b   Bend
| pb  Pre-bend
| br  Bend release
| pbr Pre-bend release
| brb Bend release bend

************************************

Comments