Black Keys - Countdown Chords & Tabs

 

Countdown Chords & Tabs

Black Keys Chords & Tabs

Version: 1 Type: Tab 0 ratings
1 star 2 stars 3 stars 4 stars 5 stars
comments

Countdown Tab

Again, open A and D note's with your thumb.

/ = slide
~ = vibrato
^ = bend
h = hammer on
p = pull off
t = thumb
                         Intro..
E  :----------------------5-----2----5--------------5-----2----5---------|
B  :---------------------------------------------------------------------|
G  :--------------------------------------2----2--------------------2----|
D  :---------------------------------------------2-----------------------|
A  :----------------------0--0--0--0---0--0--4------0--0--0--0---0--0--4-|
E  :---------------------------------------------------------------------|
[ Tab from: http://www.guitartabs.cc/tabs/b/black_keys/countdown_tab.html ]
                We ll it' s one,  two..
E  :------------------------------------------------5----8----5----8----|
B  :--------------------------------------------------------------------|
G  :-2------------------------------------------------------------------|
D  :---2--------------------------------------------0--0---0--0--0---0--|
A  :--------------3^--0--3^--0--3^--0--3^--0----------------------------|
E  :--------------------------------------------------------------------|


E  :------5----8----5----8----5-----------5-----2----5--------------5----|
B  :7--------------------------------------------------------------------|
G  :------------------------------------------------------2----2---------|
D  :0--0--0--0---0--0--0---0--0----------------------------------2-------|
A  :--------------------------------------0--0--0--0---0--0--4------0--0-|
E  :---------------------------------------------------------------------|


E  :--2----5------------|
B  :--------------------|
G  :------------2----2--|
D  :-------------------2|
A  :--0--0---0--0--4----|
E  :--------------------|

Transcribed by James Fisher (greenmachine@gmail.com)
~ http://bktabs.xtracrispy.com

taken from:http://bktabs.xtracrispy.com/tabs.php
Comments