Black Keys - Busted Chords & Tabs

 

Busted Chords & Tabs

Black Keys Chords & Tabs

Version: 2 Type: Tab 0 ratings
1 star 2 stars 3 stars 4 stars 5 stars
comments

Busted Tab

                                  ~~~~~~~~~~~~~~~~~~~~~~~~~~~~~~~~~~~~~~~~
                                                   Busted
                                             by: The Black Keys
                                           from: The Big Come Up
                                  ~~~~~~~~~~~~~~~~~~~~~~~~~~~~~~~~~~~~~~~~
Tabbed by: Connor O.
Tuning: Open G (DGDGBD)
Effects: Fuzz and reverb. 

One of my favorite Black Keys songs. Finger picked all the way, so forget using that pick. 

As you probably know, a slide is used in the main riff. Make sure to use your muting 
techniques to properly isolate the slides. If you don't know what I'm talking about,
or the slides just aren't sounding right, send me a message and I can help you out.
Don't hesitate. I'm on here pretty much everyday and could get back to you. Also,
there are plenty of vids and articles online demonstrating proper muting technique.

Comment or message any ideas or corrections.

Please rate my tab.


Key:
where # represents a fret number

#h# - hammer
#p# - pull
/ \ - slides, up and down respectively.
#b# - bend from normal note up to achieve bended note.
#r# - release bend from bended note to normal note.
#b - a quick bend, a half step bend up. eg (3 up to 4)


Intro:


  0:00
       (8 up/downs - 16 total)          (8 up/downs - 16 total)
D|-5-5-5-5-5-5-5-5-5-5-5-5-5-5-5-5--3-3-3-3-3-3-3-3-3-3-3-3-3-3-3-|
B|----------------------------------------------------------------|
G|----------------------------------------------------------------|
D|----------------------------------------------------------------|
G|----------------------------------------------------------------|
D|----------------------------------------------------------------| 


  0:03

D|-3-3/5-5-5-5-5/8-8-8\5-5-5\3-3----------------------------------|
B|-------------------------------3\1------------------------------|
G|-----------------------------------3-0------------0-0h3-0h3-0h3-|
D|--------------------------------------------0-3-0---------------|
G|----------------------------------------------------------------|
D|----------------------------------------------------------------|


  0:08

D|---------3----------------------------|
B|-----1-3---1h3-1----------------------|
G|-0h3-------------3-0------------------|
D|---------------------0h2--------------|
G|---------------------3---3-3-3b-3b-0--|
D|--------------------------------------| 


Bridge: (G & D bass line is palm muted)


  0:13
  
D|----------3-----5p3-----------------------3-----5p3----------------|
B|------1/3-----------------------------1/3--------------------------|
G|------------------------3b------0-----------------------3b------0--|
D|------------0-------------------------------0----------------------|
G|0---0---0-------0---0---0---0---0---0---0-------0---0---0---0---0--|
D|-------------------------------------------------------------------| 


  0:19
  (increasing the intensity of that 3b)
D|----------3-------------------------------3------------------------|
B|------1/3-------3\1-------------------1/3-------3\1----------------|
G|------------------------3b------0-----------------------3b------0--|
D|------------0-------------------------------0----------------------|
G|0---0---0-------0---0---0---0---0---0---0-------0---0---0---0---0--|
D|-------------------------------------------------------------------|


Verse:

  0:24
                                            
D|----------------------------------------------------------------------------------|
B|----------------------------------------------------------------------------------|
G|-------------0----------------0-------------------------------0-------------------|
D|-3/5--------------3/5--------------3/5------------3/5---------5---3/5---------5---|
G|-------5--3b---0--------5--3b---0--------5--3bp0--------5--3b-----------5--3b-----|
D|----------------------------------------------------------------------------------| 


  0:35  
   Well...             Yes I'm...           But my...            Let me....
D|----------------------------------------------------------------------------------|
B|----------------------------------------------------------------------------------|
G|-----0--------0----------0--------0-----------0--------0---------0----------------|
D|-----0-------------------0--------------------0------------------0----------------|
G|-0-3---x-x-----------0-3---x-x------------0-3---x-x----------0-3---x-x------------|
D|-----------3b------------------3b-------------------3b-----------------3b---------| 


  0:42
  Do you...            Won't...             Won't...
D|--------------------------------------------------------------------|
B|--------------------------------------------------------------------|
G|-----0--------0----------0--------0-----------0--------0------------|
D|-----0-------------------0--------------------0---------------------|
G|-0-3---x-x-----------0-3---x-x------------0-3---x-x------0----------|
D|-----------3b------------------3b-------------------3b--------------| 

[ Tab from: http://www.guitartabs.cc/tabs/b/black_keys/busted_tab_ver_2.html ]
  0:49
   Round            Round            Round            Round
D|--------------------------------------------------------------------|
B|--------------------------------------------------------------------|
G|-------------0----------------0----------------0----------------0---|
D|-3/5--------------3/5--------------3/5--------------3/5---------0---|
G|-------5--3b---0--------5--3b---0--------5--3b---0--------5--3b-----|
D|--------------------------------------------------------------------| 


Bridge:


  0:57

D|-1/3--5p3---------1/3--5p3---------1/3--------------1/3-------------|
B|-1/3--------------1/3--------------1/3--3\1---------1/3--3\1--------|
G|-----------3bp0-------------3bp0-------------3bp0--------------3bp0-|
D|--------------------------------------------------------------------|
G|--------------------------------------------------------------------|
D|--------------------------------------------------------------------|


Verse:


  1:05

D|---------------------------------|
B|---------------------------------|
G|------------------------------0--|
D|-3/5--------------3/5------------|
G|-------5--3b------------5--3b----|
D|---------------------------------| 

 
  1:08 
   If you...           Like I...            Please...          Let me...
D|----------------------------------------------------------------------------------|
B|----------------------------------------------------------------------------------|
G|-----0--------0----------0--------0-----------0--------0---------0----------------|
D|-----0-------------------0--------------------0------------------0----------------|
G|-0-3---x-x-----------0-3---x-x------------0-3---x-x----------0-3---x-x------------|
D|-----------3b------------------3b-------------------3b-----------------3b---------| 


  1:05
  ..darlin..          Walk...               walk...              walk...
D|----------------------------------------------------------------------------------|
B|----------------------------------------------------------------------------------|
G|-----0--------0----------0--------0-----------0--------0---------0----------------|
D|-----0-------------------0--------------------0------------------0----------------|
G|-0-3---x-x-----------0-3---x-x------------0-3---x-x----------0-3---x-x------------|
D|-----------3b------------------3b-------------------3b-----------------3b---------| 


  1:24
   Door...          Door...          Door...          Door... 
D|----------------------------------------------------------------------|
B|----------------------------------------------------------------------|
G|--------------0-------------------------------------------------------|
D|-3/5-x------------3/5-x------------3/5-x------------3/5-x-------------|
G|--------5--3-------------5--3-------------5--3-------------5p0--3p0---|
D|----------------------------------------------------------------------| 


  1:31
  
D|-1/3--5p3---------1/3--5p3---------1/3---------------3----------------|
B|-1/3--------------1/3--------------1/3--3\1----------3--1-------------|
G|-----------3bp0-------------3bp0-------------3bp0----------3bp0-------|
D|----------------------------------------------------------------------|
G|----------------------------------------------------------------------|
D|----------------------------------------------------------------------|


  1:40

D|----------------|
B|----------------|
G|----------------|
D|-3/5-x----------|
G|--------5--3----|
D|----------------| 



Outro:

  1:43 
                             (delayed 3/5)
D|---------------------------------------------------------------------------|
B|---------------------------------------------------------------------------|
G|------------------------------------------------1/3------------3/5---------|
D|-0--3/5-----------3/5------------3/5---------------------------------------|
G|-0------0-5-0-3-0-----0-5-0-3b-0-----0-5-0-3b-0-----0-5-0-3b-0-------------|
D|---------------------------------------------------------------------------| 


  1:51

D|---------------------------------------------------------------------------|
B|---------------------------------------------------------------------------|
G|------------10/12------------10/12------------10/12------------------------| PAUSE
D|------------10/12------------10/12------------10/12------------3/5---------|
G|-0-5-0-3b-0-------0-5-0-3b-0-------0-5-0-3b-0-------0-5-0-3b-0-----0-5-0-3-|
D|---------------------------------------------------------------------------| 

  
  2:00

D|-------------------------------------------------------------12------------|
B|----------------------------------------------------------------10/12------|
G|----------------------------------------------------------------------12\10|
D|---3/5------------3/5------------3/5------------3/5------------------------|
G|-0-----0-5-0-3b-0-----0-5-0-3b-0-----0-5-0-3b-0-----0-5-0-3-0--------------|
D|---------------------------------------------------------------------------| 


  2:08

D|---------------------------------------------------------------------------|
B|---------------------------------------------------------------------------|
G|-0-3-0-------3/5-3-0---------------------------------------10/12-----------|
D|-------3/5-----------3-0-----3/5------------3/5------------10/12-----------|
G|-------------------------3-0-----0-5-0-3b-0-----0-5-0-3b-0-------0-5-0-3b-0|
D|---------------------------------------------------------------------------| 


  2:16

D|-------------------------------------------------------3----------------0--|
B|-------------------------------------------------------3----------------0--|
G|-10/12------------10/12------------10/12----------0----0----------------0--| 
D|-10/12------------10/12------------10/12----------0----0----------------0--|  END
G|-------0-5-0-3b-0-------0-5-0-3b-0-------0-5-0-3b-0----0----------------0--|
D|-------------------------------------------------------0----------------0--|
Comments