Black Keys - Breaks Chords & Tabs

 

Breaks Chords & Tabs

Black Keys Chords & Tabs

Version: 2 Type: Tab 0 ratings
1 star 2 stars 3 stars 4 stars 5 stars
comments

Breaks Tab

Breaks, The Black Keys (Off The Big Come Up)
Tabbed By Anthony Yannitelli

E---8---------------------|
G-------8-----------------|
B-----------7-------------|
D-------------5s7-5-------|
A-----4---5---------7-5-3-|
e-5-----------------------| Play 6X
[ Tab from: http://www.guitartabs.cc/tabs/b/black_keys/breaks_tab_ver_2.html ]
E---------------------------------------------------------8-----8-----------|(let ring)
G-------------------------------------------------------------8-8-----------|(let ring)
B-------------------7s9-9-9-9-9-9-9-9-6s7-7-7-7-7-7-7-7---------------------|
D-5s7-7-7-7-7-7-7-7-7s9-9-9-9-9-9-9-9-6s7-7-7-7-7-7-7-7---------------------|
A-5s7-7-7-7-7-7-7-7-5s7-7-7-7-7-7-7-7-4s5-5-5-5-5-5-5-5-----4---------------|
e-3s5-5-5-5-5-5-5-5-------------------------------------5-------------------|

Repeat Song
Comments