Black Keys - Breaks Chords & Tabs

 

Breaks Chords & Tabs

Black Keys Chords & Tabs

Version: 1 Type: Tab

Breaks Tab

standard tuning
IT ISN4T 100% CORRECTBUT IT SOUNDS GOOD
[ Tab from: http://www.guitartabs.cc/tabs/b/black_keys/breaks_tab.html ]
e|-----8------3-----------------------|
B|------------------3-----------------|
G|--------------------2-0-------------|
D|------------------------1-0---------|
A|---------------5-------------0------|
E|-5-------3--------------------------|

e|-----8------3-----------------------|
B|------------------3-----------------|
G|--------------------2-0-------------|
D|------------------------1-0---------|
A|---------------5-------------0------|
E|---------3--------------------------|