Black Keys - Black Door Chords & Tabs

 

Black Door Chords & Tabs

Black Keys Chords & Tabs

Version: 1 Type: Tab 0 ratings
1 star 2 stars 3 stars 4 stars 5 stars
comments

Black Door Tab

The Black Keys-Black door


Open G Tuning

Intro/main riff (with slide)


d---------------------------------------------------------------------------|
b-------------------------------------------------------------------/12--12-|
g-----------------------------------------3------5-------3----------/12--12-|
d----5----5-------5---3p-0---------------3-------5------3-----------/12--12-|
g----0----0----0-------------3~----0-----3------5-------3------0------------|
d---------------------------------------------------------------------------|

d--------------------------------------------------------------------------|
b---------------------------------------------------------------3----0-----|
g-----------------------------------------3------5-------3------3----0-----|
d----5----5-------5---3p--0---------------3------5-------3------3----0-----|
g----0----0----0-------------3~----0-----3------5-------0------------------|
d--------------------------------------------------------------------------|


d---------------------------------------------------------------------------|
b-------------------------------------------------------------------/12--12-|
g-----------------------------------------3------5-------3----------/12--12-|
d----5----5-------5---3p--0--------------3-------5-------3----------/12--12-|
g----0----0----0-------------3~----0-----3------5-------3------0------------|
d---------------------------------------------------------------------------|


d--------------------------------------------------------------------------|
b---------------------------------------------------------------10/12------|
g-----------------------------------------3------5-------3------10/12------|
d----5----5-------5---3--0---------------3------5--------3------10/12------|
g----0----0----0-------------3~----0-----3------5-------0------------------|
d--------------------------------------------------------------------------|

Verse
[ Tab from: http://www.guitartabs.cc/tabs/b/black_keys/black_door_tab.html ]
d-----------------------------------------------------------------------------|
b-----------------------------------------------------------------------------|
g------5-------3------0---------------5------3-------0------------------------|
d------5-------3------0---------------5------3-------0------------------------|  repeat 
whole load of times
g------5-------3------0---------------5------3-------0------------------------|  then back to main riff
d----------------------------3---------------------------------3~-------------|

          Whats behind                 your black door......

breakdown

d------------------------------------------------------------------|
b------------------------------------------------------------------|
g-----------------------------------------3h-5p-3~-----------------|
d----------5--------3---------0------------------------------------|
g------0-------0---------0-----------0-----------------------------|
d------------------------------------------------------------------|

d-----------------------------------------------------------------|
b-----------------------------------------------------------------|
g------------------------------------------3~p--0-----------------|
d----------5--------3---------0---------------------3p---0--------|
g------0-------0---------0-----------0----------------------------|
d-----------------------------------------------------------------|

d-----------------------------------------------------------------|
b-----------------------------------------------------------------|
g--------------------------------------------5b7r5------3---------|
d----------5--------3---------0-----------------------------------|
g------0-------0---------0-----------0----------------------------|
d-----------------------------------------------------------------|

d-----------------------------------------------------------------|
b-----------------------------------------------------------------|
g-----------------------------------------------------------------|
d----------5--------3---------0-----------------------------------|
g------0-------0---------0-----------0-----3p--0------------------|
d--------------------------------------------------3--5-----------|

repeat this a few times before playin

d---------------------------------|
b---------------------------------|
g---------------------------------|
d---------------------------------|
g------5-----------3--------------|
d---------------------------------|

and then back to the main riff
Comments