Black Keys - All Hands Against His Own Chords & Tabs

 

All Hands Against His Own Chords & Tabs

Black Keys Chords & Tabs

Version: 4 Type: Tab 0 ratings
1 star 2 stars 3 stars 4 stars 5 stars
comments

All Hands Against His Own Tab

Artist-The Black Keys	
Song- All Hands Against His Own
Album-Rubber Factory
Tuning-Standard (Eadgbe)
Distortion-Yes-Crunch
Tabbed by:Nick Cottrell- Audioslave88


h-Hammer on
/-slide
X-Mute
	Intro/Main Riff

e|-----------X-------------------------------------------+
b|-----------X-------------------------------------------+
g|-----------X----------6-44/6--------------------6-44/6-+ 
d|-----------X----------7-55/7-----------------7--7-55/7-+
a|-0-3-5-5/7-X-3-5-7----7-55/7-0-3-5-7\5-3-5-7----7-55/7-+
E|-----------X-------5--5-33/5--------------------5-33/5-+

	Chorus
[ Tab from: http://www.guitartabs.cc/tabs/b/black_keys/all_hands_against_his_own_tab_ver_4.html ]
e|---------------------------------------+
b|---------------------------------------+
g|-7-7-7-7-7-7-7-7---6-44/6-------6-44/6-+
d|-7-7-7-7-7-7-7-7---7-55/7-------7-55/7-+Repeat 2X
a|-5-5-5-5-5-5-5-5---7-55/7-------7-55/7-+
E|-----------------5-5-33/5-3h5---5-33/5-+


	Bridge (Slow Part)

e|---------------------------------------+
b|---------------------------------------+
g|-7h9-7----------------------9----7-9---+
d|-------10-10/12-12----10-12---10-----7-+ Repeat 2X
a|-------------------12------------------+
E|---------------------------------------+

 I have not figured out the solo yet.Listen to the song for the order.
				 Enjoy! Go Keys
Comments