Black Heart - Another Day Chords & Tabs

 

Another Day Chords & Tabs

Black Heart Chords & Tabs

Version: 1 Type: Tab 0 ratings
1 star 2 stars 3 stars 4 stars 5 stars
comments

Another Day Tab

Artist: Black Heart
song title: Another Day
Album: the wrath among us
Guitarist- alex

(intro)
E-----1p0-0-0-3p0-0-0-5-7-0---repeat 4x----------
A------------------------------------------------
D------------------------------------------------
G------------------------------------------------
B------------------------------------------------
e------------------------------------------------

E---13p12-0-0-10h12p0-----------repeat 4x--------
A------------------------------------------------
D------------------------------------------------
G------------------------------------------------
B------------------------------------------------
e------------------------------------------------

(singing starts)
E---0-0-0-3-5-0-0-3-5-----0-0-0-3-5-7-5-0 repeat5x
A---0-0-0-3-5-0-0-3-5-----0-0-0-3-5-7-5-0--------
D---0-0-0-3-5-0-0-3-5-----0-0-0-3-5-7-5-0--------
G------------------------------------------------
B------------------------------------------------
e------------------------------------------------


(Chorus)
[ Tab from: http://www.guitartabs.cc/tabs/b/black_heart/another_day_tab.html ]
E---0--0--0---7----1--1--1---7--5--3---0--0--0--9--7--5--3--2--1--0
A---0--0--0---7----3--3--3---7--5--3---0--0--0--9--7--5--3--2--1--0
D-----------------------------------------------------------------
G------------------------------------------------------------Repeat -----
B-----------------------------------------------------------------
e-----------------------------------------------------------------

E---3--3--3-----5--5--5----------------------repeat2x------
A---5--5--5-----7--7--7-----3--3--3--3--3------------------
D---------------------------5--5--5--5--5------------------
G----------------------------------------------------------
B----------------------------------------------------------
e----------------------------------------------------------

(chorus ends)

(back to singing part)

E---0-0-0-3-5-0-0-3-5-----0-0-0-3-5-7-5-0 (repeat)5x
A---0-0-0-3-5-0-0-3-5-----0-0-0-3-5-7-5-0--------
D---0-0-0-3-5-0-0-3-5-----0-0-0-3-5-7-5-0--------
G------------------------------------------------
B------------------------------------------------
e------------------------------------------------

(picking part)

E--------------------------(repeat8x)------------
A--7----5----3-----2---2-------------------------
D---9----7----5----4-----4-----------------------
G----9----7----5---4----4------------------------
B------------------------------------------------
e------------------------------------------------

(song ends)
Comments