Black Flag - Your Last Affront Chords & Tabs

 

Your Last Affront Chords & Tabs

Black Flag Chords & Tabs

Version: 1 Type: Bass Tab 0 ratings
1 star 2 stars 3 stars 4 stars 5 stars
comments

Your Last Affront Bass Tab

Black Flag - Your Last Affront

G |-----------------6-8---5-7-|
D |---------6-7-0-7-----6-----|
A |-0---6-7-------------------|
E |---------------------------|

[ Tab from: http://www.guitartabs.cc/tabs/b/black_flag/your_last_affront_btab.html ]
G |-----------------6-8---5-7-|
D |---------6-7-0-7-----6-----|
A |-0---6-7-------------------|
E |---------------------------|

This are the notes played, positive. Not in the whole song, but for the most of it. The
tempo is a little weird, because, after all, "the process of weeding out" (in which "your
last affront" is the 1st song) is in my opinion the most "jazzistic" stuff ever released
by black flag.
Comments