Black Flag - White Minority Chords & Tabs

 

White Minority Chords & Tabs

Black Flag Chords & Tabs

Version: 2 Type: Tab 0 ratings
1 star 2 stars 3 stars 4 stars 5 stars
comments

White Minority Tab

song: white minority
by: black flag

intro1
E----------------------|
B----------------------|
G----------------------|
D----------------------|
A--4-444444-222--7--9--|
E--2-222222-000--5--7--|

intro2
E--------------------|
B--------------------|
G--------------------|
D--------------------|
A--9-9999999999-7-8--|
E--7-7777777777-5-6--|

verse
E--------------------|
B--------------------|
G--------------------|
D-----------9--9--9--|
A--9-999999-7--7--7--|
E--7-777777----------|
[ Tab from: http://www.guitartabs.cc/tabs/b/black_flag/white_minority_tab_ver_2.html ]
chorus
E---------------------------------------|
B---------------------------------------|
G---------------------------------------|
D-----------9-999999--------------------|
A--4-444444-7-777777-7-777777-9-999999--|
E--2-222222----------5-555555-7-777777--|

timing:
intro1..4x
intro2..2x
verse...4x
chorus..2x
verse...4x
chorus..2x
verse...4x

this is a good song. its early henry rollins stuff. after keith morris qhit and before 
released damaged. tips for new black flag fans, the early years and damaged are the best 
back when morris was still with them and when rollins started. good early stuff, before
they went all metal and crap.
Comments