Black Flag - White Minority Chords & Tabs

 

White Minority Chords & Tabs

Black Flag Chords & Tabs

Version: 1 Type: Tab 0 ratings
1 star 2 stars 3 stars 4 stars 5 stars
comments

White Minority Tab


Intro
E|---------------------------------|
B|---------------------------------|
G|--11111111111111--99-------------|
D|--11111111111111--99--7--9-------|4X
A|---9-9-9-9-9-9-9--77--7--9-------|
E|----------------------5--7-------|

Pre-Verse
E|--------------------|
B|--------------------|
G|--------------------|
D|--99999999--7--8----|2X
A|--99999999--7--8----|
E|--77777777--5--6----|

Verse
E|---------------------|
B|---------------------|
G|-----------9--9--9---|
D|--9999999--9--9--9---|4X
A|--9999999--7--7--7---|
E|--7777777------------|
[ Tab from: http://www.guitartabs.cc/tabs/b/black_flag/white_minority_tab.html ]
Chorus
E|------------------------------------|
B|------------------------------------|
G|--1111111111--99999-----------------|
D|--1111111111--99999---77777--99999--|2X
A|---9-9-9-9-9--77777---77777--99999--|
E|----------------------55555--77777--|

Verse
E|---------------------|
B|---------------------|
G|-----------9--9--9---|
D|--9999999--9--9--9---|4X
A|--9999999--7--7--7---|
E|--7777777------------|

Chorus
E|------------------------------------|
B|------------------------------------|
G|--1111111111--99999-----------------|
D|--1111111111--99999---77777--99999--|2X
A|---9-9-9-9-9--77777---77777--99999--|
E|----------------------55555--77777--|

Verse
E|---------------------|
B|---------------------|
G|-----------9--9--9---|
D|--9999999--9--9--9---|4X
A|--9999999--7--7--7---|
E|--7777777------------|

That's It !! Good Song !!!!

TAb By PaUlo MaRaScA FiLhO
Comments