Black Flag - Slip It In Chords & Tabs

 

Slip It In Chords & Tabs

Black Flag Chords & Tabs

Version: 2 Type: Tab 0 ratings
1 star 2 stars 3 stars 4 stars 5 stars
comments

Slip It In Tab

Black Flag
song: slip it in
Tabber: Beau Bock


---|-0----0--------0----0-------|---0--12-15b17r15-12(x7)-|
---|---3----3--------3----3-----|---0--12-----------------|
-1-|----------1-------------1---|-------------------------|
---|------------0-------------0-|-2-----------------------|
---|----------------------------|-2-----------------------|
---|----------------------------|-0-----------------------|
Intro. - Bass enters first 2x 

--------------------------------------|
--------------------------------------|
----------------------9---------------|
--------------------9-----------------|
-2-2--2-2-2--2-2--7-----7\------------|
-0-0--0-0-0--0-0----------------------|
Riff differs slightly throughout song.
[ Tab from: http://www.guitartabs.cc/tabs/b/black_flag/slip_it_in_tab_ver_2.html ]
------------------------------|--------------------------------|
------------------------------|--------------------------------|
------------------------------|--------------------------------|
-5-5-5--5-5-5--5--5-5-5-----2-|-11-11-11--11-9-----------------|
-5-5-5--5-5-5--5--5-5-5-3-3-2-|-11-11-11--11-9-----------------|
-3-3-3--3-3-3--3--3-3-3-----0-|--9--9--9---9-7-----------------|
(2x)You say you don' want it...you dont want it (2x)

------------|-------------------------------|
------------|-------------------------------|
------------|-------------------------------|
-7-7-7--7-5-|-2-----------------------------|
-7-7-7--7-5-|-2-----------------------------|
-5-5-5--5-3-|-0-----------------------------|
" 2x And then you slip it on in...

-------------|---------------------------------|
-------------|---------------------------------|
-------------|---------------------------------|
-5-5-5-5-5-5-|------------------5-5-5-----2----|
-5-5-5-5-5-5-|------------------5-5-5-3-3-2----|
-3-3-3-3-3-3-|------------------3-3-3-----0----|
3x You --- Slip ---- It ---- In
Comments