Black Flag - Rise Above Chords & Tabs

 

Rise Above Chords & Tabs

Black Flag Chords & Tabs

Version: 4 Type: Tab 0 ratings
1 star 2 stars 3 stars 4 stars 5 stars
comments

Rise Above Tab

   
Intro
E|---------------------------------------------------------------------|
B|---------------------------------------------------------------------|
G|---------------------------------------------------------------------|
D|---------------------------------------------------------------------|
A|--777-666-555-444--777-666-555-444--777-666-555-444--777-666-555-444-|
E|---------------------------------------------------------------------|

E|-------------------------------------------------------------------------|
B|-------------------------------------------------------------------------|
G|----------------------------------------555------------------------------|
D|-55-777-55-777-----------------55-77777-555-2-5555555555-777777777-------|
A|-55-777-55-777-777-666-555-444-55-77777-333-2-5555555555-777777777-/Slide|
E|-33-555-33-555-----------------33-55555-----0-3333333333-555555555-------|

Verse
E|--------------------------------------------|
B|--------------------------------------------|
G|--------------------------------------------|
D|-----4-----4-----4-----4---55-777--55-777---|4X
A|--55----55----55----55-----55-777--55-777---|
E|---------------------------33-555--33-555---|

Chorus
E|-------------------------------------------------------------------|
B|-------------------------------------------------------------------|
G|--99999--55555-----------------99999--77777------------------------|
D|--99999--55555--55555--55-777--99999--77777--99999--55-777--55-777-|
A|--77777--33333--55555--55-777--77777--55555--99999--55-777--55-777-|
E|----------------33333--33-555----------------77777--33-555--33-555-|

Verse
E|--------------------------------------------|
B|--------------------------------------------|
G|--------------------------------------------|
D|-----4-----4-----4-----4---55-777--55-777---|4X
A|--55----55----55----55-----55-777--55-777---|
E|---------------------------33-555--33-555---|

[ Tab from: http://www.guitartabs.cc/tabs/b/black_flag/rise_above_tab_ver_4.html ]
Chorus
E|-------------------------------------------------------------------|
B|-------------------------------------------------------------------|
G|--99999--55555-----------------99999--77777------------------------|
D|--99999--55555--55555--55-777--99999--77777--99999--55-777--55-777-|
A|--77777--33333--55555--55-777--77777--55555--99999--55-777--55-777-|
E|----------------33333--33-555----------------77777--33-555--33-555-|

Solo
E|---10--10--10--1010------------------15p13p12-15p13p12-17-14-17-15-17-16^-|
B|-10--10--10--10--10--33-5555-33-5555--------------------------------------|
G|--------------------------------------------------------------------------|
D|--------------------------------------------------------------------------|
A|--------------------------------------------------------------------------|
E|--------------------------------------------------------------------------|

|---------15-17^-|
|--18-16---------|
|----------------|
|----------------|
|----------------|
|----------------|

Chorus
E|-------------------------------------------------------------------|
B|-------------------------------------------------------------------|
G|--99999--55555-----------------99999--77777------------------------|
D|--99999--55555--55555--55-777--99999--77777--99999--55-777--55-777-|
A|--77777--33333--55555--55-777--77777--55555--99999--55-777--55-777-|
E|----------------33333--33-555----------------77777--33-555--33-555-|

Verse
E|--------------------------------------------|
B|--------------------------------------------|
G|--------------------------------------------|
D|-----4-----4-----4-----4---55-777--55-777---|4X
A|--55----55----55----55-----55-777--55-777---|
E|---------------------------33-555--33-555---|


Chorus
E|-------------------------------------------------------------------|
B|-------------------------------------------------------------------|
G|--99999--55555-----------------99999--77777------------------------|
D|--99999--55555--55555--55-777--99999--77777--99999--55-777--55-777-|
A|--77777--33333--55555--55-777--77777--55555--99999--55-777--55-777-|
E|----------------33333--33-555----------------77777--33-555--33-555-|

End
E|-------------------------|
B|-------------------------|
G|-------------------------|
D|---55-777--55-777--------|3X
A|---55-777--55-777--------|
E|---33-555--33-555--------|


If you guys want to know the palm mutes just listen the fuckin song OK!   
Tab by PAULO MARASCA FILHO
Comments