Black Flag - Rise Above Chords & Tabs

 

Rise Above Chords & Tabs

Black Flag Chords & Tabs

Version: 3 Type: Tab 0 ratings
1 star 2 stars 3 stars 4 stars 5 stars
comments

Rise Above Tab

   
--------------------------------------------------------------------------
                          RISE ABOVE - Black Flag
--------------------------------------------------------------------------
Tabbed by: zccleve 
Email: zccleve@aol.com

Tuning: Standard

Okay. To get the classic Black Flag sound, switch to your bridge pickup, and set its
tone to 10. Crank up the gain on your amp as high as it goes. On your amp, set your
bass to 3, your mid to 5, and your treble to maximum. Enjoy.

Intro:
e|-----------------------------------|-----------------------------------|
B|-----------------------------------|-----------------------------------|
G|---9---9---9---9---8---8---8---8---|---7---7---7---7---6---6---6---6---|
D|---9---9---9---9---8---8---8---8---|---7---7---7---7---6---6---6---6---|
A|---7---7---7---7---6---6---6---6---|---5---5---5---5---4---4---4---4---|
E|-----------------------------------|-----------------------------------|

e|-----------------------------------|-----------------------------------|
B|-----------------------------------|-----------------------------------|
G|---9---9---9---9---8---8---8---8---|---7---7---7---7---6---6---6---6---|
D|---9---9---9---9---8---8---8---8---|---7---7---7---7---6---6---6---6---|
A|---7---7---7---7---6---6---6---6---|---5---5---5---5---4---4---4---4---|
E|-----------------------------------|-----------------------------------|

e|-----------------------------------|-----------------------------------|
B|-----------------------------------|-----------------------------------|
G|---9---9---9---9---8---8---8---8---|---7---7---7---7---6---6---6---6---|
D|---9---9---9---9---8---8---8---8---|---7---7---7---7---6---6---6---6---|
A|---7---7---7---7---6---6---6---6---|---5---5---5---5---4---4---4---4---|
E|-----------------------------------|-----------------------------------|

e|-----------------------------------|-----------------------------------|
B|-----------------------------------|-----------------------------------|
G|---9---9---9---9---8---8---8---8---|---7---7---7---7---6---6---6---6---|
D|---9---9---9---9---8---8---8---8---|---7---7---7---7---6---6---6---6---|
A|---7---7---7---7---6---6---6---6---|---5---5---5---5---4---4---4---4---|
E|-----------------------------------|-----------------------------------|

e|-----------------------------------|-----------------------------------|
B|-----------------------------------|-----------------------------------|
G|-----------------------------------|-----------------------------------|
D|---5-------5---7---7---7---7---7---|---5-------5---7---7---7---7---7---|
A|---5-------5---7---7---7---7---7---|---5-------5---7---7---7---7---7---|
E|---3-------3---5---5---5---5---5---|---3-------3---5---5---5---5---5---|

e|-----------------------------------|-----------------------------------|
B|-----------------------------------|-----------------------------------|
G|---9---9---9---9---8---8---8---8---|---7---7---7---7---6---6---6---6---|
D|---9---9---9---9---8---8---8---8---|---7---7---7---7---6---6---6---6---|
A|---7---7---7---7---6---6---6---6---|---5---5---5---5---4---4---4---4---|
E|-----------------------------------|-----------------------------------|

e|-----------------------------------|-----------------------------------|
B|-----------------------------------|-----------------------------------|
G|-----------------------------------|---X---7---7---7---7---7-----------|
D|---5-------5---7---7---7---7---5---|---X---7---7---7---7---7---X---3---|
A|---5-------5---7---7---7---7---7---|---X---5---5---5---5---7---X---3---|
E|---3-------3---5---5---5---5---5---|-----------------------5---X---1---|

e|-----------------------------------|-----------------------------------|
B|-----------------------------------|-----------------------------------|
G|-----------------------------------|-----------------------------------|
D|---3---3---3---3---3---3---3---3---|---3---3---3---3---3---3---3---5---|
A|---3---3---3---3---3---3---3---3---|---3---3---3---3---3---3---3---5---|
E|---1---1---1---1---1---1---1---1---|---1---1---1---1---1---1---1---3---|

e|-----------------------------------|-----------------------------------|
B|-----------------------------------|-----------------------------------|
G|-----------------------------------|-----------------------------------|
D|---5---5---5---5---5---5---5---5---|---5---5---5---5---5---5---5---5---|
A|---5---5---5---5---5---5---5---5---|---5---5---5---5---5---5---5---7---|
E|---3---3---3---3---3---3---3---3---|---3---3---3---3---3---3---3---5---|

e|-----------------------------------|-----------------------------------|
B|-----------------------------------|-----------------------------------|
G|-----------------------------------|-----------------------------------|
D|---7---7---7---7---7---7---7---7---|---7---7---7---7---7---7---7---7---|
A|---7---7---7---7---7---7---7---7---|---7---7---7---7---7---7---7---7---|
E|---5---5---5---5---5---5---5---5---|---5---5---5---5---5---5---5---5---|
[ Tab from: http://www.guitartabs.cc/tabs/b/black_flag/rise_above_tab_ver_3.html ]
Intro Solo:
e|-22///////////0--------------------|-----------------------------------|
B|-22///////////0--------------------|-----------------------------------|
G|-----------------------------------|-----------------------------------|
D|-----------------------------------|-----------------------------------|
A|-----------------------------------|-----------------------------------|
E|-----------------------------------|-----------------------------------|
Tremolo pick all the frets down to zero at light speed!

Verse:
e|-----------------------------------|-----------------------------------|
B|-----7--------7--------7--------7--|-----7--------7--------7--------7--|
G|---7--------7--------7--------7----|---7--------7--------7--------7----|
D|-----------------------------------|-----------------------------------|
A|-----------------------------------|-----------------------------------|
E|-----------------------------------|-----------------------------------|

e|-----------------------------------|-----------------------------------|
B|-----------------------------------|-----------------------------------|
G|-----------------------------------|-----------------------------------|
D|---5-------5---7---7---7---7---7---|---5-------5---7---7---7---7---7---|
A|---5-------5---7---7---7---7---7---|---5-------5---7---7---7---7---7---|
E|---3-------3---5---5---5---5---5---|---3-------3---5---5---5---5---5---|

Chorus:
e|-----------------------------------|-----------------------------------|
B|-----------------------------------|-----------------------------------|
G|---9---X---X---X---X---X---X---X---|---7---X---X---X---X---X---X---X---|
D|---9---X---X---X---X---X---X---X---|---7---X---X---X---X---X---X---X---|
A|---7---X---X---X---X---X---X---X---|---5---X---X---X---X---X---X---X---|
E|-----------------------------------|-----------------------------------|

e|-----------------------------------|-----------------------------------|
B|-----------------------------------|-----------------------------------|
G|---4---X---X---X---X---X---X---X---|-----------------------------------|
D|---4---X---X---X---X---X---X---X---|---5-------5---7---7---7---7---7---|
A|---2---X---X---X---X---X---X---X---|---5-------5---7---7---7---7---7---|
E|-----------------------------------|---3-------3---5---5---5---5---5---|

e|-----------------------------------|-----------------------------------|
B|-----------------------------------|-----------------------------------|
G|---9---X---X---X---X---X---X---X---|---7---X---X---X---X---X---X---X---|
D|---9---X---X---X---X---X---X---X---|---7---X---X---X---X---X---X---X---|
A|---7---X---X---X---X---X---X---X---|---5---X---X---X---X---X---X---X---|
E|-----------------------------------|-----------------------------------|
    
e|-----------------------------------|-----------------------------------|
B|-----------------------------------|-----------------------------------|
G|---4---X---X---X---X---X---X---X---|-----------------------------------|
D|---4---X---X---X---X---X---X---X---|---5-------5---7---7---7---7---7---|
A|---2---X---X---X---X---X---X---X---|---5-------5---7---7---7---7---7---|
E|-----------------------------------|---3-------3---5---5---5---5---5---|

e|-----------------------------------|
B|-----------------------------------|
G|-----------------------------------|
D|---5-------5---7---7---7---7---7---|
A|---5-------5---7---7---7---7---7---|
E|---3-------3---5---5---5---5---5---|

Solo (1:24)
e|-10-12-15---10-12-15---10-12-15----|-10-12-15---10-12-5--5-5-----------|
B|-10-12-15---10-12-15---10-12-15----|-10-12-15---10-12-5--5-5-----------|
G|-----------------------------------|-----------------------------------|
D|-----------------------------------|-----------------------------------|
A|-----------------------------------|-----------------------------------|
E|-----------------------------------|-----------------------------------|
                                     
                                     
e|-----------------------------------|-12-12-15-15-19-19--19/18/17/16/15-|
B|-3-5-5--5-5-5---3-5-5--5-5-5-------|-12-12-15-15-19-19--19/18/17/16/15-|
G|-2-4-4--4-4-4---2-4-4--4-4-4-------|-----------------------------------|
D|-----------------------------------|-----------------------------------|
A|-----------------------------------|-----------------------------------|
E|-----------------------------------|-----------------------------------|

                                      End Solo (1:34)
e|-/14/13/12---------12-15-17--------|-----------------------------------|
b|-/14/13/12--3-5-5--12-15-17--------|-----------------------------------|
G|------------2-4-4------------------|-----------------------------------|
D|-----------------------------------|-----------------------------------|
A|-----------------------------------|-----------------------------------|
E|-----------------------------------|-----------------------------------|

End:
e|-----------------------------------|-----------------------------------|
B|-----------------------------------|-----------------------------------|
G|-----------------------------------|-----------------------------------|
D|---5-------5---7---7---7---7---7---|---5-------5---7---7---7---7---7---|
A|---5-------5---7---7---7---7---7---|---5-------5---7---7---7---7---7---|
E|---3-------3---5---5---5---5---5---|---3-------3---5---5---5---5---5---|


Intro
Intro Solo
Verse x4
Chorus
Verse x4
Solo
Chorus
Verse x4
Chorus
End x3


| /  slide up
| \  slide down
| h  hammer-on
| p  pull-off
| ~  vibrato
| +  harmonic
| x  mute note
=============================================================================
Comments