Black Flag - Rise Above Chords & Tabs

 

Rise Above Chords & Tabs

Black Flag Chords & Tabs

Version: 1 Type: Bass Tab

Rise Above Bass Tab

-------------------------------------------------------------------------------
			     Rise Above - Black Flag
-------------------------------------------------------------------------------

Tabbed By :josh 
e-mail:scrubster2002@yahoo.com 

Tuning:standard

This song sounds best when played with fingers. bass comes in after the guitar plays the intro riff twice.

Intro
G|-------------------------------------------------------------------|
D|-------------------------------------------------------------------|
A|-777-666-555-444-777-666-555-444-----------777-666-555-444---------|
E|----------------------------------33/5555------------------33/5555-|

G|---------------------------------------------------|
D|---------------------------------------------------|
A|-3333----------------------------------------------|
E|------0-1111111111/3333333333333333-55555555555555-|
[ Tab from: http://www.guitartabs.cc/tabs/b/black_flag/rise_above_btab.html ]
Verse
G|----------------------------------|
D|----------------------------------|
A|-5555555555555555-----------------|
E|------------------33/5555-33/5555-|

Chorus
G|----------------------------------------------------|
D|----------------------------------------------------|
A|-7----3----------------7----5-----------------------|
E|-----------3--33/5555------------7--33/5555-33/5555-|

Solo
G|-------------------------------------------------------------------|
D|-------------------------------------------------------------------|
A|-5555555555555555-----------------5555555555555555-----------------|
E|------------------33/5555-33/5555------------------33/5555-33/5555-|

Outro
G|----------------------------------------------------|
D|----------------------------------------------------|
A|----------------------------------------------------|
E|-33/5555--33/5555--33/5555-33/5555-33/5555-335~-----|