Black Flag - Life Of Pain Chords & Tabs

 

Life Of Pain Chords & Tabs

Black Flag Chords & Tabs

Version: 1 Type: Tab 0 ratings
1 star 2 stars 3 stars 4 stars 5 stars
comments

Life Of Pain Tab

Heres some black flag tablature for 
                                  :LIFE OF PAIN

(INTRO.....>)

E----------------------------------------------------
B----------------------------------------------------
G----------------------------------------------------
D------7-----10-----12-----14-----15------14------15-
A----6------9-----11-----13-----14------13------14---
E--5------8-----10-----12-----13------12------13-----

(INTRO CONTINUED>>>>>)

E------------------|
B------------------|
G------------------|                   (END OF INTRO)
D------14-----13---|
A----13-----12-----|
E--12-----11-------|

MAIN VERSE
[ Tab from: http://www.guitartabs.cc/tabs/b/black_flag/life_of_pain_tab.html ]
(YOU CAN WORK OUT HOW MANY TIMES YOU HIT EACH CHORD)
E--------------------------------------------------------|
B--------------------------------------------------------|
G--------------------------------------------------------|
D--5----12----7----5----12----9----5----12----7----5----9|
A--5----12----7----5----12----9----5----12----7----5----9|
E--3----10----5----3----10----7----3----10----5----3----7|

CHORUS

E-----------------------|
B-----------------------|
G-----------------------|
D--6----5----4----3----9|
A--6----5----4----3----9|
E--4----3----2----1----7|

(HERE ARE THE LYRICS OF LIFE OF PAIN TO ACCOMPANY MY TAB)


LIFE OF PAIN:

Look what you've done to your arms,
I know you don't care who you harm,
I know you've never been the girl next door,
But now your worse than before,

SELF DESTRUCT
SELF DESTRUCT

Lifes misery pain runs deep,
Does it matter that nobody care,
Can't there be another outlet,
Nobody get close,
Nobody dares,

SELF DESTRUCT
SELF DESTRUCT

I can understand your problems,
and I can even figure out the reasons why,
But I can't help  the way I feel,
And I can't accept what I see,
And I just can't stand watching you,

SELF DESTRUCT
SELF DESTRUCT

(spoken)
Your digging your own grave,
and your taking my feelings with you,
There's got to be a way to get  out


FROM CHRIS HEAD (THE IMFAMOUS WITCHDOCTOR)
Comments