Black Flag - Jealous Again Chords & Tabs

 

Jealous Again Chords & Tabs

Black Flag Chords & Tabs

Version: 2 Type: Bass Tab 0 ratings
1 star 2 stars 3 stars 4 stars 5 stars
comments

Jealous Again Bass Tab

artist: black flag
song: jealous again

Intro: Guitar only

Verse riff:
G| --------------------|-------------------------|
D| --------------------|-------------------------|
A| -7---7-7------------|-5---5-5-5-5-5-5-5-------|
E| ------------7---7---|-------------------------|

G|------------------|------------------|-------------------|-----------------|
D|------------------|------------------|-------------------|-----------------|
A|-7---7-7----------|-5---5-5----------|-7-7-7-7-7-7-7-7---|-7-7-7-7-7-7-7-7-|
E|----------7---7---|----------5---5---|-------------------|-----------------|

[ Tab from: http://www.guitartabs.cc/tabs/b/black_flag/jealous_again_btab_ver_2.html ]
Chorus riff:
G|-------------------|-------------------|-----------------|-----------------|
D|-------------------|-------------------|-----------------|-----------------|
A|-------------------|-------------------|-9---7---5---7---|-----------------|
E|-7-7-7-7-7-7-7-7---|-7-7-7-7-7-7-7-7---|-----------------|-5---5---5-5-5---|


Play above twice then play...
G| -------------------|---------------------------|
D| -------------------|---------------------------|
A| -------------------|-10-10-10-10-10-10-10-10---|
E| -3-3-3-3-3-3-3-3---|---------------------------|

Outro:
G|------------------|------------------|------------------|------------------|
D|------------------|------------------|------------------|------------------|
A|-7---7-7----------|-5---5-5----------|-3---3-3----------|-1---1-1----------|
E|----------7---7---|----------5---5---|----------3---3---|----------1---1---|

   YOU'RE JEALOUS AGAIN           AND AGAIN               AND AGAIN

G| ---------|
D| ---------|
A| ---------|
E| -0-------|
Comments