Black Flag - American Waste Chords & Tabs

 

American Waste Chords & Tabs

Black Flag Chords & Tabs

Version: 2 Type: Tab 0 ratings
1 star 2 stars 3 stars 4 stars 5 stars
comments

American Waste Tab

song: american waste
by: black flag

^ means bend string
/ means slide while strumming
v means vibrate string
~ means ring

intro1
E-------------------------------------------------------|
B-------------------------------------------------------|
G-------------------------------------------------------|
D-----------8-8-8888------------------------------------|
A--8-8-8888-6-6-6666-6^6^6^6^6^6^6^6^-------------------|
E--6-6-6666---------------------------6^6^6^6^6^6^6^6^--|

intro2
E-------------------------------------------------------|
B-------------------------------------------------------|
G-------------------------------------------------------|
D--55555555555-6666-55555555555-6666-555-6666-555-6666--|
A--33333333333-4444-33333333333-4444-333-4444-333-4444--|
E-------------------------------------------------------|

verse
E-----------------------------|
B-----------------------------|
G-----------------------------|
D--88---------10101010101010--|
A--66--66--10--8-8-8-8-8-8-8--|
E------44---8-----------------|
[ Tab from: http://www.guitartabs.cc/tabs/b/black_flag/american_waste_tab_ver_2.html ]
chorus
E-----------------------|
B-----------------------|
G-----------------------|
D--8888-6666------6666--|
A--6666-4444-8888-4444--|
E------------6666-------|

solo
E------------------------------10-10101010-9-10-10101010-9-10-10101010-9--|
B--11^-9^-7^-9^--11^-9^-7^-9^--10-10101010-9-10-10101010-9-10-10101010-9--|
G-------------------------------------------------------------------------|
D-------------------------------------------------------------------------|
A-------------------------------------------------------------------------|
E-------------------------------------------------------------------------|

E--10-10101010-9--9////////-19-17-15----------------|
B--10-10101010-9---------------------19-17-15--12v--|
G---------------------------------------------------|
D---------------------------------------------------|
A---------------------------------------------------|
E---------------------------------------------------|

end
E-------------|
B-------------|
G-------------|
D--5~~~~~~-5--|
A--3~~~~~~-3--|
E-------------|

timing:
intro1..2x
intro2..1x
verse...4x
chorus..4x
verse...4x
chorus..4x
verse...4x
solo....1x
verse...4x
chorus..4x
end.....1x

im not 100% sure the solo is correct but i cant figure anything else out so that might 
it.
Comments