Black Flag - American Waste Chords & Tabs

 

American Waste Chords & Tabs

Black Flag Chords & Tabs

Version: 1 Type: Tab 1 rating
1 star 2 stars 3 stars 4 stars 5 stars
comments

American Waste Tab

Black Flag
American Waste
by Wolfstrike
Wolfstrike2@usinmail.com



(u=up stroke d = down stroke strum previous chord)



E: --------------------------------------------- 
B: ---------------------------------------------
G: -------------------------7--------7----7-7-7-
D: --7--------7----7-7-7-x--7--------7----7-7-7-
A: --7--------7----7-7-7-x--5--------5----5-5-5-
E: --5--------5----5-5-5-x--

G:--------------------------------------
D:--9-9-9-9-9-9-9-9---------------------
A:--------------------------------------repeat
E:--7-7-7-7-7-7-7-7-0-0---0-----0-0-0---


[ Tab from: http://www.guitartabs.cc/tabs/b/black_flag/american_waste_tab.html ]
G:-----------------------------------------
D:--9------------------------10--9---------
A:--9------------------------10--9---------repeat
E:--7-u-d-u-d-u-d-u---d-u-d---8--7-u-d-u---



G:-----------------------------------------
D:--9--------10-9----------------10-9------
A:--9--------10-9----------------10-9------repeat
E:--7-u-d-u---8-7-u-d-u---d-u-d--8--7-u-d---


verse

G:--7--------7---------------x-x-10------------
D:--7--------7-------5-5-5-5-x-x-10------------
A:--5--------5-------5-5-5-5-x-x--8-u-d-u-d-u--
E:-------------------3-3-3-3-----------------



chorus

G:--7---------5---------2---------5------------
D:--7---------5---------2---------5------------
A:--5---------3---------0---------3------------
E:--5-u-d-u---3-u-d-u---0-u-d-u---3-u-d-u------


solo  

E:--
B:--12------10------7------10-----R---12----13----14----15
G:--14/-----12/-----9/------12/---R---14/---15/---16/---17/
D:--
A:--
E:--




Comments