Black Eyed Peas - Where Is The Love Chords & Tabs

 

Where Is The Love Chords & Tabs

Black Eyed Peas Chords & Tabs

Version: 6 Type: Tab 0 ratings
1 star 2 stars 3 stars 4 stars 5 stars
comments

Where Is The Love Tab

e|-------------------------------------------------------------------------|
B|-------------------------------------------------------------------------|
G|-------------------------------------------------------------------------|
D|-------------------------------------------------------------------------|
A|-5-----0-4-5-2-----0-5-4-2-----4-5---------------------------------------|
E|-----------------------------------3-------------------------------------|

e|-------------------------------------------------------------------------|
B|-------------------------------------------------------------------------|
G|-------------------------------------------------------------------------|
D|-------------------------------------------------------------------------|
A|-5-----0-4-5-2-----0-5-4-2-----4-5---------------------------------------|
E|-----------------------------------3-3-3-3-------------------------------|
[ Tab from: http://www.guitartabs.cc/tabs/b/black_eyed_peas/where_is_the_love_tab_ver_6.html ]
Comments