Black Eyed Peas - Where Is The Love Chords & Tabs

 

Where Is The Love Chords & Tabs

Black Eyed Peas Chords & Tabs

Version: 1 Type: Tab 3 ratings
1 star 2 stars 3 stars 4 stars 5 stars
comments

Where Is The Love Tab

   
-----------------------------------------------------------
Black Eyed Peas - Where Is The Love?
-----------------------------------------------------------
Tabbed By Rob
Standart Tuning

-------------
Main Riff
-------------
[ Tab from: http://www.guitartabs.cc/tabs/b/black_eyed_peas/where_is_the_love_tab.html ]
e|-----------------------------------------------------------
B|-----------------------------------------------11----11----
G|-10------14-10-9-------9-10-7----9-10-------10-x--10-x-----
D|-x----10-x--x--x----10-x-x--x----x-x--8-----x--8--x--8-----
A|-8----x--12-8--7----x--7-8--5----7-8--x-----8-----8--------
E|------8-------------8-----------------6--------------------

---------------------
Chord Progression
---------------------

F  C/E  Dm  Bb



F    133211
C/E  x7555x or 032010
Dm   x57765 or xx0231
Bb   688766 or x13331
Comments