Black Eyed Peas - Where Is The Love Chords & Tabs

 

Where Is The Love Chords & Tabs

Black Eyed Peas Chords & Tabs

Version: 4 Type: Bass Tab 0 ratings
1 star 2 stars 3 stars 4 stars 5 stars
comments

Where Is The Love Bass Tab

   
Jonas.J.Jakobsen/koRn's tab got it mostly right, but the cello section was a
bit off. This is my corrected version, plus chords & the breakdown.

Em is just a chord subtitution for C, if you want to call it C, go ahead.

Main Riff:

 F                 Em                Dm                Bb
:-------------2---|-----------------|-----------------|-----------3---3-:G
:---------------3-|-2-----------2-3-|-------------2-3-|-----------------:D
:-----------3-----|-----------3-----|-5---------------|-1-------1---1---:A
:-1---------------|-----------------|-----------------|-----------------:E

Breakdown:
[ Tab from: http://www.guitartabs.cc/tabs/b/black_eyed_peas/where_is_the_love_btab_ver_4.html ]
 F                 C                 Dm                Bb
:-----------------|-----------------|-----------------|-----------3---3-:G
:-----------------|-------------5---|-----------------|---------1---1---:D
:-------------0-1-|-3---------------|-5---------------|-1---------------:A
:-1---------------|-----------------|-----------------|-----------------:E

Cello Part:

 F                   C                   Dm               Bb
:-------------------|-------------------|-----------------|-----------------:G  
:-------7-----------|--------8-7--------|-----7-5---------|-------7-5-------:D
:-8---8----10-8-7-8-|---7-10-----10-8-7-|-5-8-----8-7-5-8-|---5-7-----8-7-8-:A
:---8---------------|-8-----------------|-----------------|-6---------------:E
Comments