Black Eyed Peas - Where Is The Love Chords & Tabs

 

Where Is The Love Chords & Tabs

Black Eyed Peas Chords & Tabs

Version: 3 Type: Bass Tab 0 ratings
1 star 2 stars 3 stars 4 stars 5 stars
comments

Where Is The Love Bass Tab

   
where is the love
black eyed peas
[ Tab from: http://www.guitartabs.cc/tabs/b/black_eyed_peas/where_is_the_love_btab_ver_3.html ]
 F                      C
G|----------------------|----------------------|
D|------------------7---|----------------------|
A|8-------------------8-|7-----------------7-8-|
E|----------------8-----|----------------8-----|
  Dm                     Bb
G|----------------------|----------------------|
D|----------------------|----------------------|
A|5-----------------7-8-|----------------------|
E|----------------------|6-----------6-6---6-6-|

yan lang natapos ko. ok rin ung version one. try nyo rin.
Comments