Black Eyed Peas - Rap Song Chords & Tabs

 

Rap Song Chords & Tabs

Black Eyed Peas Chords & Tabs

Version: 3 Type: Tab 2 ratings
1 star 2 stars 3 stars 4 stars 5 stars
comments

Rap Song Tab


Author/Artist: Black Eyed Peas (featuring Wyclef)
Title: Rap Song
Album: Bridging the Gap
Transcribed by: Andrew Brown
Email: abrown22@start.com.au


INTRO

e-------------------------------------------|
B-------------------------------------------|
G-------------------4-----------------------|
D-------6--9-----1-----------4--7--------7--|
A----7--------2-----------5--------0--4-----|
E-------------------------------------------|

e-----------------------------------------------|
B-----------------------------------------------|
G-----------------------4-----------------------|
D-----------6--9-----1-----------4--7--------7--|
A----7-7-7--------2-----------5--------0--4-----|
E-----------------------------------------------|

e-------------------------------------------|
B-------------------------------------------|
G-------------------4-----------------------|
D-------6--9-----1-----------4--7--------7--|
A----7--------2-----------5--------0--4-----|
E-------------------------------------------|

e-------------------------------------------|
B-------------------------------------------|
G-------------------4-----------------------|
D-------6--9-----1-----------4--7--------7--|
A----7--------2-----------5--------0--4-----|
E-------------------------------------------|


VERSE - played in time with drum

e----------------------------------------------------------|
B----------------------------------------------------------|
G----------------------------------------------------------|
D---9-9--9--9-7---9-9--9--9-7---9-9--9--9-7---9-9--9--9-7--|
A---7-7--7--7-5---7-7--7--7-5---7-7--7--7-5---7-7--7--7-5--|
E----------------------------------------------------------|
[ Tab from: http://www.guitartabs.cc/tabs/b/black_eyed_peas/rap_song_tab_ver_3.html ]
e----------------------------------------------------------|
B----------------------------------------------------------|
G----------------------------------------------------------|
D---9-9--9--9-7---9-9--9--9-7---9-9--9--9-7---9-9--9--9----|
A---7-7--7--7-5---7-7--7--7-5---7-7--7--7-5---7-7--7--7----|
E----------------------------------------------------------|

SUB-CHORUS "she like a rap song..."

e--------------------------------------------------------|
B--------------------------------------------------------|
G--------------------------------------------------------|
D--------------------------------------------------------|
A--------------------------------------------------------|
E---0--5--4--0--8--7--5---------0--5--4--0--8--7--5------|

e--------------------------------------------------------|
B--------------------------------------------------------|
G--------------------------------------------------------|
D--------------------------------------------------------|
A--------------------------------------------------------|
E---0--5--4--0--8--7--5---------0--5--4--0--8--7--5------|

CHORUS "she like a rap song..."

e-------------------------------------------|
B-------------------------------------------|
G-------------------4-----------------------|
D-------6--9-----1-----------4--7--------7--|
A----7--------2-----------5--------0--4-----|
E-------------------------------------------|

e-------------------------------------------|
B-------------------------------------------|
G-------------------4-----------------------|
D-------6--9-----1-----------4--7--------7--|
A----7--------2-----------5--------0--4-----|
E-------------------------------------------|


Comments