Black Eyed Peas - Lets Get Retarded Chords & Tabs

 

Lets Get Retarded Chords & Tabs

Black Eyed Peas Chords & Tabs

Version: 2 Type: Bass Tab 0 ratings
1 star 2 stars 3 stars 4 stars 5 stars
comments

Lets Get Retarded Bass Tab

   
Intro/Verse

G-----------------------------------------|
D--------------------------------4-----3--|    Intro 2X,  
A--2---2---4---5--0--5--0-----4------3----|     
E----2----------------------3-------2-----|


G-----------------------------------------|
D--------------------------------4-----3--|    Verse 3X,  
A--2---2---4---5--0--5--0-----4------3----|     
E----2----------------------3-------2-----|

Pre-Chorus

G------------------------------------------|
D-----------0------------------------------|
A--2---------------------------------------|
E----------------------3-------------2-----|

G-------------------------------------------|
D-----------0---0---------------------------|
A--2----2-----------------------------------|
E----------------------3---3--------2---2---|

Chorus

G-----------------------------------------|
D--------------------------------4-----3--|    4X,
A--2---2---4---5--0--5--0-----4------3----|
E----2----------------------3-------2-----|

Bit After Chorus

G------------------------------------------|
D-----------0------------------------------|
A--2---------------------------------------|
E----------------------3--3----------2-----|

G-------------------------------------------|
D---------------0---------------------------|
A--2----2-----------------------------------|
E----------------------3---3--------2---2---|

Verse 2


G-----------------------------------------|
D--------------------------------4-----3--|    3X,
A--2---2---4---5--0--5--0-----4------3----|
E----2----------------------3-------2-----|

Pre Chorus

G------------------------------------------|
D-----------0------------------------------|
A--2---------------------------------------|
E----------------------3-------------2-----|

G-------------------------------------------|
D-----------0---0---------------------------|
A--2----2-----------------------------------|
E----------------------3---3--------2---2---|

Chorus
[ Tab from: http://www.guitartabs.cc/tabs/b/black_eyed_peas/lets_get_retarded_btab_ver_2.html ]
G-----------------------------------------|
D--------------------------------4-----3--|    4X,
A--2---2---4---5--0--5--0-----4------3----|
E----2----------------------3-------2-----|

Interlude

G-----------------------------------------|
D-----------------------------------------|
A-xxxxxxxxxxxxxxxxxxxxxxxxxxxxxxxxxxxxxxxx|
E-----------------------------------------|

Bridge

G---------------------------------------|
D-------------------0-0-0-0-------------|   3X
A--2-2-2-2------------------------------|
E-----------3-3-3-3-----------2-2-2-2---|

Interlude

G---------------------------------------|
D---------------------------------------|
A----------------------0-0-0-0----------|
E--3-3-3-3-3-3-3-3--------------2-2-2-2-|

Verse 3

G----------------------------|
D----------------------------|   3X And Then This:
A--2----2--2-------2----2--2-|
E----------------------------|

G-------------------------------------|
D----------0-----0--------------------|  2X
A--2----2-----------------------------|
E-------------------3----3--2----2----|

Pre Chorus

G------------------------------------------|
D-----------0------------------------------|
A--2---------------------------------------|
E----------------------3-------------2-----|

G-------------------------------------------|
D-----------0---0---------------------------|
A--2----2-----------------------------------|
E----------------------3---3--------2---2---|

Chorus

G-----------------------------------------|
D--------------------------------4-----3--|    4X,
A--2---2---4---5--0--5--0-----4------3----|
E----2----------------------3-------2-----|

Bridge

G---------------------------------------|
D-------------------0-0-0-0-------------|   3X
A--2-2-2-2------------------------------|
E-----------3-3-3-3-----------2-2-2-2---|

Outro

G---------------------------------------|
D---------------------------------------|
A----------------------0-0-0-0----------|
E--3-3-3-3-3-3-3-3--------------2-2-2-2-|


Well that's it!  The only thing I couldn't get was the second part of the intro.
But the rest is there!! Enjoy!! Any comments or the second part of the intro are
welcome at my mail adress:

mart_is_me_naam@hotmail.com        (yes I'm a Dutch guy!)
Comments