Black Eyed Peas - Dont Phunk With My Heart Chords & Tabs

 

Dont Phunk With My Heart Chords & Tabs

Black Eyed Peas Chords & Tabs

Version: 1 Type: Tab 9 ratings
1 star 2 stars 3 stars 4 stars 5 stars
comments

Dont Phunk With My Heart Tab

         Hey guys I just learned this song its pretty fun to play .     

  (EADGBE)


           NO NO NO NO dont phunk with my heart ....................  I wonder if I ...............           Verse
E:-------6---------6--------6-------------------------------------------------------------
B:-------6--7x-----9--4x----8--4x---------------------------------------------------------
G:-------7---------7--------7-------------------------------------------------------------
D:----------------------------------------------------------------------------------------
A:----------------------------------------------------------------------------------------
E:----------------------------------------------------------------------------------------

[ Tab from: http://www.guitartabs.cc/tabs/b/black_eyed_peas/dont_phunk_with_my_heart_tab.html ]
            Dont You Worry About A Thing .............  
            
E:----------------------------------------------------------------------------------------
B:----666666/444444/999999/88888----------------------------------------------------------
G:----------------------------------------------------------------------------------------
D:----------------------------------------------------------------------------------------
A:----------------------------------------------------------------------------------------
E:----------------------------------------------------------------------------------------

            Before it kicks back in it does a little roll like this 

E:---------------------------
B:--6h9-6h9------------------
G:---------------------------
D:---------------------------
A:---------------------------
E:---------------------------

            Listen to the song cause twards the end it goes 


E:------3-4-6-8-6-4-3---------------------------------------------------------------------
B:----6---------------6-------------------------------------------------------------------
G:----------------------------------------------------------------------------------------
D:----------------------------------------------------------------------------------------
A:----------------------------------------------------------------------------------------
E:----------------------------------------------------------------------------------------

 Thats it , Listen to the song to get it down and hear the beats . Please Rate
Comments