Black Eyed Peas - Dont Lie Chords & Tabs

 

Dont Lie Chords & Tabs

Black Eyed Peas Chords & Tabs

Version: 4 Type: Tab

Dont Lie Tab

---------------------------------------------------------------------------
			  DON´T LIE – Black Eyed Peas
---------------------------------------------------------------------------
Tabbed by: Jürgen S.


Vers – Chords:

    A - - - - - D - - - - - repeat to the beat
e|--5-----------5----------------------------------------------------------|
B|--5-----------7----------------------------------------------------------|
G|--6-----------7----------------------------------------------------------|
D|--7-----------7----------------------------------------------------------|
A|--7----------------------------------------------------------------------|
E|--5----------------------------------------------------------------------|


hook line:
[ Tab from: http://www.guitartabs.cc/tabs/b/black_eyed_peas/dont_lie_tab_ver_4.html ]
e|--9---7----9---7---5-5---------------------------------------------------|
B|-10---9---10---9---7-7---------------------------------------------------|
G|-------------------------------------------------------------------------|
D|-------------------------------------------------------------------------|
A|-------------------------------------------------------------------------|
E|-------------------------------------------------------------------------|


Chorus – Chords:

   A - - - - - D - -A
e|-5----------(7)---5------------------------------------------------------|
B|-5-----------7----5------------------------------------------------------|
G|-6-----------7----6------------------------------------------------------|
D|-7-----------7----7------------------------------------------------------|
A|-7-----------5----7------------------------------------------------------|
E|-5----------------5------------------------------------------------------|


Bridges:

  Bm - -  C#m / D - - A - - - D – - A - - F#m - - D° - A
e|-2-------4----------5-------7-----5------2------5----5-------------------|
B|-3-------5----7-----5-------7-----5------2------7----5-------------------|
G|-4-------6----7-----6-------7-----6------2------7----6-------------------|
D|-4-------6----7-----7-------7-----7------4------7----7-------------------|
A|-2-------4----5-----7-------5-----7------4-----------7-------------------|
E|--------------------5-------------5------2-----------5-------------------|