Black Eyed Peas - Dont Lie Chords & Tabs

 

Dont Lie Chords & Tabs

Black Eyed Peas Chords & Tabs

Version: 3 Type: Tab 0 ratings
1 star 2 stars 3 stars 4 stars 5 stars
comments

Dont Lie Tab

Tabbed by: pogicookokz


intro (violin)
e|----------------------------------------------------------------------|
B|--5----7---8---7---5---7---8---7---8---7---5---7---5---7---8---7---5--|
G|----------------------------------------------------------------------|
D|----------------------------------------------------------------------|
A|----------------------------------------------------------------------|
E|----------------------------------------------------------------------|

e|--------15-----19----------------------------------------------------------------|
B|--5/15---------------------------------------------------------------------------|
G|---------------------------------------------------------------------------------|
D|---------------------------------------------------------------------------------|
A|---------------------------------------------------------------------------------|
E|---------------------------------------------------------------------------------|
[ Tab from: http://www.guitartabs.cc/tabs/b/black_eyed_peas/dont_lie_tab_ver_3.html ]
verse
e|---5--5--5--5------9--7--9--7--5----2--2--2--2--|
B|---5--5--5--5------9--7--9--7--5----3--3--3--3--|
G|---6--6--6--6-----------------------4--4--4--4--|
D|---7--7--7--7-----------------------4--4--4--4--|
A|---7--7--7--7-----------------------2--2--2--2--|
E|---5--5--5--5-----------------------------------|

chorus
e|--2--2--2--2--------5--5--5--5-------------------------5-5-5-5--|let it ring
B|--3--3--3--3--------5--5--5--5-------------------------5-5-5-5--|
G|--4--4--4--4--------6--6--6--6----------------------------------|
D|--4--4--4--4--------7--7--7--7----------------------------------|
A|--2--2--2--2--------7--7--7--7----------------------------------|
E|--------------------5--5--5--5----------------------0-----------|

"oOo hoO oOo hoO"
e|---------------------------------------------|
B|--9h10---14---9---9h10---14--------------x3--|
G|---------------------------------------------|
D|---------------------------------------------|
A|---------------------------------------------|
E|---------------------------------------------|

start of last verse
e|------------------------------------------------------------------------------------|
B|---/10---5---7----------------x2----------------------------------------------------|
G|------------------------------------------------------------------------------------|
D|------------------------------------------------------------------------------------|
A|------------------------------------------------------------------------------------|
E|------------------------------------------------------------------------------------|

repeat chorus
Comments