Black Eyed Peas - Anxiety Chords & Tabs

 

Anxiety Chords & Tabs

Black Eyed Peas Chords & Tabs

Version: 1 Type: Bass Tab 0 ratings
1 star 2 stars 3 stars 4 stars 5 stars
comments

Anxiety Bass Tab

   
Song: Anxiety
Artist: Black Eyed Peas
Album: Elephunk
Tabbed by: Timothy Morrison

Tuning: Standard tuning, G, D, A, E
***********************************

Intro:
|---|-------|---|---|-------|---|
|---|-------|---|---|-------|---|
|---|-------|---|---|-5-3-5-|---|
|-5-|-0-3-5-|-1-|-5-|-------|-1-|

Verse 1:
|-------------------|-------------------|-------------------|-------------------|
|-------------------|-----------4-------|-------------------|-----------4-------|
|-----------5-------|-------------------|-----------5-------|-------------------|
|-5-5-3-5-3---5-3-5-|-5-5-3-5-3---5-3-5-|-1-1-3-5-1---5-3-5-|-1-1-3-5-1---5-3-5-|  2X

|-----|-----|-------|-----|
|-----|-----|-------|-----|
|-----|-----|-------|-----|
|-5-5-|-5-5-|-5-1-1-|-1-1-|

Pre-chorus:
|-----|---------|---------|---------|
|-----|---------|---------|---------|
|-----|---------|---------|---------|
|-5-5-|-5---5-5-|-5---5-5-|-5---5-5-|

Chorus:
|---------|---------|-------|-----|-------|-----|---------|---------|---------|
|---------|---------|-------|-----|-------|-----|---------|---------|---------|
|---------|---------|-------|-----|-3-\-0-|-----|---------|---------|---------|
|-5---5-5-|-5---5-5-|-5-1-1-|-1-1-|-------|-5-5-|-5-5-5-5-|-5-5-1-1-|-1-1-|-5-|

Verse 2:
|-------------------|-------------------|-------------------|----------------|
|-------------------|-----------4-------|-------------------|-----------4----|
|-----------5-------|-------------------|-----------5-------|----------------|
|-5-5-3-5-3---5-3-5-|-5-5-3-5-3---5-3-5-|-1-1-3-5-1---5-3-5-|-1-1-3-5-1---5...-|  
[ Tab from: http://www.guitartabs.cc/tabs/b/black_eyed_peas/anxiety_btab.html ]
|-------------------|-------------------|-------------------|-------------------|
|-------------------|-----------4-------|-------------------|-----------4-------|
|-----------5-------|-------------------|-----------5-------|-------------------|
|-5-5-3-5-3---5-3-5-|-5-5-3-5-3---5-3-5-|-1-1-3-5-1---5-3-5-|-1-1-3-5-1---5-3-5-|  

|-----|-----|-------|-----|-----|-----|-------|-----|---|
|-----|-----|-------|-----|-----|-----|-------|-----|---|
|-----|-----|-------|-----|-----|-----|-------|-----|---|
|-5-5-|-5-5-|-5-1-1-|-1-1-|-5-5-|-5-5-|-5-1-1-|-1-1-|-1-|

Pre-chorus:
|-----|---------|---------|----------------|
|-----|---------|---------|-----3----------|
|-----|---------|---------|---3-----2-3-\-0|
|-5-5-|-5---5-5-|-5---5-5-|-5-----5--------|

Chorus:
|---------|---------|-------|-----|-------|-----|---------|---------|---------|
|---------|---------|-------|-----|-------|-----|---------|---------|---------|
|---------|---------|-------|-----|-3-\-0-|-----|---------|---------|---------|
|-5---5-5-|-5---5-5-|-5-1-1-|-1-1-|-------|-5-5-|-5-5-5-5-|-5-5-1-1-|-1-1-|-5-|




Solo:
|
|---|---|---|---|
|---|---|---|---|
|-5-|-1-|-5-|-1-|

Pre-chorus:
|-----|---------|---------|---------|
|-----|---------|---------|---------|
|-----|---------|---------|---------|
|-5-5-|-5---5-5-|-5---5-5-|-5---5-5-|

Chorus:
|---------|---------|-------|-----|-------|-----|---------|---------|---------|
|---------|---------|-------|-----|-------|-----|---------|---------|---------|
|---------|---------|-------|-----|-3-\-0-|-----|---------|---------|---------|
|-5---5-5-|-5---5-5-|-5-1-1-|-1-1-|-------|-5-5-|-5-5-5-5-|-5-5-1-1-|-1-1-|-5-|...
Comments