Black Dahlia Murder - Unhallowed Chords & Tabs

 

Unhallowed Chords & Tabs

Black Dahlia Murder Chords & Tabs

Version: 3 Type: Tab 0 ratings
1 star 2 stars 3 stars 4 stars 5 stars
comments

Unhallowed Tab

-------------------------------------------------------------------------------
			     Unhallowed - The Black Dahlia Murder
-------------------------------------------------------------------------------
Tabbed by: SeeMeRot
Email: seemerot@hotmail.com

Tuning: Drop C
. = palm mute
/ = slide up
\ = slide down
^ = downstroke, v = upstroke
+ = harmonics
h = hammer on
p = pull off

Guitar #1 Riff #1 play 4x...and 4x more during Riff #2
   ^ v ^  ^  ^ v ^
D[-----------------|
A[-----------------|
F[-----------------|
C[-----------------| live on Riff #2,I'm pretty sure this part
G[-0-0-0--0--0-0-0-| is only played by the drummer with
C[-0-0-0--0--0-0-0-| the snare drum...
   . . .  .  . . .

Guitar #1 Riff #2 play 1x
   ^ ^  ^   ^ ^  ^   ^ ^  ^   ^ ^ ^ ^ ^ ^  ^ ^
D[---------------------------------------------|
A[---------------------------------------------|
F[---------------------------------------------|
C[------------------------------8-7------------|
G[-0-1--5/7-5-4--5/7-5-4--5/7-5-----8-7-5--0-1-|
C[-0-3-------------------------------------0-3-|
   .                                       .

Guitar #2 Riff #2 play 1x
   ^ ^  ^    ^ ^  ^    ^ ^  ^    ^  ^ ^  ^ ^ ^  ^ ^
D[--------------------------------------------------|
A[--------------------------------------------------|
F[--------------------------------------------------|
C[---------------------------------12-11-8-7--------|
G[-0-1--8/10-8-7--8/10-8-7--8/10-8-----------8--0-1-|
C[-0-3------------------------------------------0-3-|
   .                                            .
Guitar #1 Riff #3 play 2x
   ^ v ^  ^ v ^  ^ v ^  ^ v ^  ^ ^ ^  ^ ^ ^
D[------------------------------------------|
A[------------------------------------------|
F[------------------------------------------|
C[------------------------------------------|
G[-0-0-0--0-0-0--0-0-0--0-0-0---------0-3-1-|
C[-0-0-0--0-0-0--0-0-0--0-0-0--4\1/3--0-3-1-|
   . . .  . . .  . . .  . . .         . . .

   ^ v ^  ^ v ^  ^ v ^  ^ v ^  ^ ^ ^  ^ ^
D[--------------------------------------------|
A[--------------------------------------------|
F[--------------------------------------------|
C[--------------------------------------------|
G[-0-0-0--0-0-0--0-0-0--0-0-0---------0-1h4p1-|
C[-0-0-0--0-0-0--0-0-0--0-0-0--4\1/3--0-------|
   . . .  . . .  . . .  . . .         .
[ Tab from: http://www.guitartabs.cc/tabs/b/black_dahlia_murder/unhallowed_tab_ver_3.html ]
   ^ v ^  ^ v ^  ^ v ^  ^ v ^  ^ ^ ^
D[-----------------------------------|
A[-----------------------------------|
F[-----------------------------------|
C[-----------------------------------|
G[-0-0-0--0-0-0--0-0-0--0-0-0--------|
C[-0-0-0--0-0-0--0-0-0--0-0-0--4\1/3-|
   . . .  . . .  . . .  . . .

   ^ v ^  ^ v ^  ^ v ^  ^ v ^  ^ ^ ^  ^ ^ ^                         ^
D[------------------------------------------                       ---|
A[------------------------------------------                       ---|
F[------------------------------------------                       ---|
C[------------------------------------------ for the last          ---|
G[-0-0-0--0-0-0--0-0-0--0-0-0-------------3- part instead of       -1-|
C[-0-0-0--0-0-0--0-0-0--0-0-0--4\1/3--0-0--- the harmonics 3 use > -3-|
   . . .  . . .  . . .  . . .         . . +

Guitar #2 Riff #3 play 2x
   ^ v ^  ^ v ^  ^ v ^  ^ v ^  ^ ^ ^  ^ ^ ^
D[------------------------------------------|
A[------------------------------------------|
F[------------------------------------------|
C[------------------------------------------|
G[-0-0-0--0-0-0--0-0-0--0-0-0---------0-3-1-|
C[-0-0-0--0-0-0--0-0-0--0-0-0--8\5/7--0-3-1-|
   . . .  . . .  . . .  . . .         . . .

   ^ v ^  ^ v ^  ^ v ^  ^ v ^  ^ ^ ^  ^ ^
D[--------------------------------------------|
A[--------------------------------------------|
F[--------------------------------------------|
C[--------------------------------------------|
G[-0-0-0--0-0-0--0-0-0--0-0-0---------0-1h4p1-|
C[-0-0-0--0-0-0--0-0-0--0-0-0--8\5/7--0-------|
   . . .  . . .  . . .  . . .         .

   ^ v ^  ^ v ^  ^ v ^  ^ v ^  ^ ^ ^
D[-----------------------------------|
A[-----------------------------------|
F[-----------------------------------|
C[-----------------------------------|
G[-0-0-0--0-0-0--0-0-0--0-0-0--------|
C[-0-0-0--0-0-0--0-0-0--0-0-0--8\5/7-|
   . . .  . . .  . . .  . . .

   ^ v ^  ^ v ^  ^ v ^  ^ v ^  ^ ^ ^  ^ ^ ^                         ^
D[------------------------------------------                       ---|
A[------------------------------------------                       ---|
F[------------------------------------------                       ---|
C[------------------------------------------ for the last          ---|
G[-0-0-0--0-0-0--0-0-0--0-0-0-------------3- part instead of       -1-|
C[-0-0-0--0-0-0--0-0-0--0-0-0--8\5/7--0-0--- the harmonics 3 use > -3-|
   . . .  . . .  . . .  . . .         . . +
Comments