Black Dahlia Murder - Unhallowed Chords & Tabs

 

Unhallowed Chords & Tabs

Black Dahlia Murder Chords & Tabs

Version: 2 Type: Tab 0 ratings
1 star 2 stars 3 stars 4 stars 5 stars
comments

Unhallowed Tab

Tabbed by: Jeffree Pfeifer

Legend
~ Vibrato
* Tapped Harmonic
. Palm Mute

Intro Riff Gtrs. 1 & 2  Play 4x's
|---------------------------------|
|---------------------------------|
|---------------------------------|
|---------------------------------|
|--0-0-0-0-0-----0-----0-0-0-0-0--|
|--0-0-0-0-0-----0-----0-0-0-0-0--|
   . . . . .     .     . . . . .     

  Riff 1 Gtr. 1  play 2x's                After Playing 2x's
|-----------------------------------|--------------------------------|
|-----------------------------------|--------------------------------|
|-----------------------------------|--------------------------------|
|-----------------------------------|-------------8~~~---------------|
|------7-----------5~~~7--8--4~~~---|---5~~~7--8---------8~~~7--4--5-|
|--0---5----------------------------|--------------------------------|
   .


        Gtr. 2                          After Playing 2x's  Play 1x
|-----------------------------------|--------------------------------|
|-----------------------------------|--------------------------------|
|-----------------------------------|-------------7~~~---------------|
|------------------3~~~5--7--2~~~---|---3~~~5--7---------7~~~5--2--3-|
|------7----------------------------|--------------------------------|
|--0---5----------------------------|--------------------------------|
   .

  Riff 2 Gtr. 1
  Play 1x         
|----------|----------------------------------------------------------|
|----------|----------------------------------------------------------|
|----------|----------------------------------------------------------|
|----------|----------------------------------------------------------|
|------7---|---0-0-0--0-0-0--0-0-0--0-0-0------8--5--5--7--7--4--4--1-|
|--0---5---|---0-0-0--0-0-0--0-0-0--0-0-0-----------------------------|
   .           . . .  . . .  . . .  . . . 

       Gtr. 2
|----------|----------------------------------------------------------|
|----------|----------------------------------------------------------|
|----------|----------------------------------------------------------|
|----------|----------------------------------------------------------|
|------7---|---0-0-0--0-0-0--0-0-0--0-0-0-----------------------------|
|--0---5---|---0-0-0--0-0-0--0-0-0--0-0-0------8--5--5--7--7--4--4--1-|
   .           . . .  . . .  . . .  . . .
Gtr. 1  Play 1x
|-----------------------------------------------------------|
|-----------------------------------------------------------|
|-----------------------------------------------------------|
|-----------------------------------------------------------|
|-0-0-0--0-0-0--0-0-0--0-0-0------8--5--5--7--7-------------|
|-0-0-0--0-0-0--0-0-0--0-0-0---------------------0--5--0--5-|
  . . .  . . .  . . .  . . .

Gtr. 2  Play 1x
|-----------------------------------------------------------|
|-----------------------------------------------------------|
|-----------------------------------------------------------|
|-----------------------------------------------------------|
|-0-0-0--0-0-0--0-0-0--0-0-0---------------------0--5--0--5-|
|-0-0-0--0-0-0--0-0-0--0-0-0------8--5--5--7--7-------------|
  . . .  . . .  . . .  . . .


Gtr. 1  Play 1x
|-----------------------------------------------------------|
|-----------------------------------------------------------|
|-----------------------------------------------------------|
|-----------------------------------------------------------|
|-0-0-0--0-0-0--0-0-0--0-0-0------8--5--5--7--7----7--4-----|
|-0-0-0--0-0-0--0-0-0--0-0-0--------------------------------|
  . . .  . . .  . . .  . . .

Gtr. 2  Play 1x
|-----------------------------------------------------------|
|-----------------------------------------------------------|
|-----------------------------------------------------------|
|-----------------------------------------------------------|
|-0-0-0--0-0-0--0-0-0--0-0-0--------------------------------|
|-0-0-0--0-0-0--0-0-0--0-0-0------8--5--5--7--7----7--4-----|
  . . .  . . .  . . .  . . .

[ Tab from: http://www.guitartabs.cc/tabs/b/black_dahlia_murder/unhallowed_tab_ver_2.html ]
Gtr. 1  Play 1x
|-----------------------------------------------------------|
|-----------------------------------------------------------|
|-----------------------------------------------------------|
|------------------------------------------------------5*---|
|-0-0-0--0-0-0--0-0-0--0-0-0------8--5--5--7--7--5----------|
|-0-0-0--0-0-0--0-0-0--0-0-0------------------------0-------|
  . . .  . . .  . . .  . . .

Gtr. 2  Play 1x
|----------------------------------------------------------------|
|----------------------------------------------------------------|
|----------------------------------------------------------------|
|----------------------------------------------------------------|
|-0-0-0--0-0-0--0-0-0--0-0-0---------------------------5*--------|
|-0-0-0--0-0-0--0-0-0--0-0-0------8--5--5--7--7--5--0------------|
  . . .  . . .  . . .  . . .


Play 1x         
|----------------------------------------------------------|
|----------------------------------------------------------|
|----------------------------------------------------------|
|----------------------------------------------------------|
|---0-0-0--0-0-0--0-0-0--0-0-0------8--5--5--7--7--4--4--1-|
|---0-0-0--0-0-0--0-0-0--0-0-0-----------------------------|
    . . .  . . .  . . .  . . . 

Gtr. 2
|----------------------------------------------------------|
|----------------------------------------------------------|
|----------------------------------------------------------|
|----------------------------------------------------------|
|---0-0-0--0-0-0--0-0-0--0-0-0-----------------------------|
|---0-0-0--0-0-0--0-0-0--0-0-0------8--5--5--7--7--4--4--1-|
    . . .  . . .  . . .  . . .


 Gtr. 1  Play 1x
|-----------------------------------------------------------|
|-----------------------------------------------------------|
|-----------------------------------------------------------|
|-----------------------------------------------------------|
|-0-0-0--0-0-0--0-0-0--0-0-0------8--5--5--7--7-------------|
|-0-0-0--0-0-0--0-0-0--0-0-0---------------------0--5--0--5-|
  . . .  . . .  . . .  . . .

Gtr. 2  Play 1x
|-----------------------------------------------------------|
|-----------------------------------------------------------|
|-----------------------------------------------------------|
|-----------------------------------------------------------|
|-0-0-0--0-0-0--0-0-0--0-0-0---------------------0--5--0--5-|
|-0-0-0--0-0-0--0-0-0--0-0-0------8--5--5--7--7-------------|
  . . .  . . .  . . .  . . .



Gtr. 1  Play 1x
|-----------------------------------------------------------|
|-----------------------------------------------------------|
|-----------------------------------------------------------|
|-----------------------------------------------------------|
|-0-0-0--0-0-0--0-0-0--0-0-0------8--5--5--7--7----7--4-----|
|-0-0-0--0-0-0--0-0-0--0-0-0--------------------------------|
  . . .  . . .  . . .  . . .

Gtr. 2  Play 1x
|-----------------------------------------------------------|
|-----------------------------------------------------------|
|-----------------------------------------------------------|
|-----------------------------------------------------------|
|-0-0-0--0-0-0--0-0-0--0-0-0--------------------------------|
|-0-0-0--0-0-0--0-0-0--0-0-0------8--5--5--7--7----7--4-----|
  . . .  . . .  . . .  . . .


Gtr. 1  Play 1x
|----------------------------------------------------------------|
|----------------------------------------------------------------|
|----------------------------------------------------------------|
|----------------------------------------------------------------|
|-0-0-0--0-0-0--0-0-0--0-0-0------8--5--5--7--7----7--5-----7----|
|-0-0-0--0-0-0--0-0-0--0-0-0-----------------------------0--5----|
  . . .  . . .  . . .  . . .                             .

Gtr. 2  Play 1x
|----------------------------------------------------------------|
|----------------------------------------------------------------|
|----------------------------------------------------------------|
|----------------------------------------------------------------|
|-0-0-0--0-0-0--0-0-0--0-0-0--------------------------------7----|
|-0-0-0--0-0-0--0-0-0--0-0-0------8--5--5--7--7----7--5--0--5----|
  . . .  . . .  . . .  . . .                             .
Comments