Black Dahlia Murder - Moonlight Equilibrium Chords & Tabs

 

Black Dahlia Murder Chords & Tabs

Version: 1 Type: Tab 0 ratings
1 star 2 stars 3 stars 4 stars 5 stars
comments

Moonlight Equilibrium Tab

   
Moonlight Equilibrium Solo
Black Dahlia Murder
Ritual

Transcribed by Seth Sanders (livetolieanotherday@hotmail.com)
	


Gtr I (C F Bb Eb G C) - 'Rhythm Guitar I'
Gtr II (C F Bb Eb G C) - 'Rhythm Guitar II'
Gtr III (C F Bb Eb G C) - 'Lead Guitar I'
Gtr IV (C F Bb Eb G C) - 'Lead Guitar II'

 Guitar Solo
  Q=218
  N.C.
 4/4
  Gtrs I, II
          PM------|           PM               PM-------|
    Q     E  E  E  E  Q       E  E +E  E       E   E  E E
|--------------------------|------------------------------|
|--------------------------|------------------------------|
|--------------------------|------------------------------|
|---5-----------------5----|-----5-(5)-5------------------|
|---3-----3--3--3--3--3----|--3--3-(3)-3-------3---3--3-3-|
|--------------------------|------------------------------|
|
| Gtr III
|               PM                         T          T
|   E  E  E  E  E  E  E  E    E  E  E  S   S  +E   E  E E
|-----------11----10s11----|------------------------------|
|--------13-------------13S|=15-11h13---------------------|
|-----12-------12----------|-----------x-/13-(13)p10-12p7-|
|-/10----------------------|------------------------------|
|--------------------------|------------------------------|
|--------------------------|------------------------------|
|
| Gtr IV
|   W                         W
|--------------------------|------------------------------|
|--------------------------|------------------------------|
|--------------------------|------------------------------|
|--------------------------|------------------------------|
|--------------------------|------------------------------|
|--------------------------|------------------------------|


   Q        E    E     E      E       Q
|---------------------------------------------------|
|---------------------------------------------------|
|---------------------------------------------------|
|--6--------6----6-----6------6-------6-------------|
|--5--------5----5-----5------5-------5-------------|
|--4--------4----4-----4------4-------4-------------|
|
|  T     T  T       T  T         T    T         T
|  |-------6--------|  |-----------6------------|
|  E  E  E  E  E    E  E  E      E    E    E    E
|---------------------------------------------------|
|---------------------------------------------------|
|------------------------------------17p==13h==17s==|
|----------16p13h==16s18p16h====18------------------|
|-17p14h17------------------------------------------|
|---------------------------------------------------|
|
|  |-------6--------|  |----------5----------|
|  E  E  E  E  E    E  E    E      E    E    E
|---------------------------------------------------|
|---------------------------------------------------|
|---------------------------------------5p===1------|
|-----------4p=1h===4s=6p===4h=====6----------------|
|--5p=2h=5------------------------------------------|
|---------------------------------------------------|


   PM                       PM--|         PM------|
   E    E    +Q        Q    E   E     Q   E  E  E  E  Q
|---------------------------------|------------------------|
|---------------------------------|------------------------|
|---------------------------------|------------------------|
|-------8----(8)-------8----------|---5---------------5----|
|--6----6----(6)-------6----------|---3---3--3--3--3--3----|
|--6----6----(6)-------6----6---6-|------------------------|
|
|                           \1/
|             T     T                 ~~~ PM    PM
|  |-------6--------|
|  E  E    E  E  E  E  Q   +Q         Q   E  E  E  E  E  E
|---------------------------------|------------------11s15-|
|------------18p16h18p13--(13)----|---------------13-------|
|-19p17h==19--------xh11--(11)----|---------12-------------|
|---------------------------------|-/10--10----10----------|
|---------------------------------|------------------------|
|---------------------------------|------------------------|
|
|                      ~~~~~~~~~
|  |-------6--------|
|  E  E    E  E  E  E  Q   +Q         W
|---------------------------------|------------------------|
|-------------6p=4h=6S13--(13)----|------------------------|
|--7p=5h===7----------------------|------------------------|
|---------------------------------|------------------------|
|---------------------------------|------------------------|
|---------------------------------|------------------------|


   PM            PM------|             PM-------|
   E   E +E   E  E  E  E E     Q       E   E  E E  Q
|--------------------------|-----------------------------|
|--------------------------|-----------------------------|
|--------------------------|-----------------------------|
|------5-(5)--5------------|---4-------------------4-----|
|--3---3-(3)--3--3--3--3-3-|---2-------2---2--2-2--2-----|
|--------------------------|-----------------------------|
|
|                      ~~
|  E   E  E   E  E  E  Q      +E    E  E   E  E E  E  E
|-----15s20--16h18p15------|-----------------------------|
|-13------------------16---|-(16)p=10h13-----10----------|
|--------------------------|--------------11----8S11-----|
|--------------------------|-------------------------10--|
|--------------------------|-----------------------------|
|--------------------------|-----------------------------|
|
|                      ~~
|  H.                  Q      +E    E  H.
|--------------------------|-----------------------------|
|---------------------13---|-(13)\--x--------------------|
|--------------------------|-----------------------------|
|--------------------------|-----------------------------|
|--------------------------|-----------------------------|
|--------------------------|-----------------------------|


   PM                                  PM------|
   E     E    +Q           Q           E       E
|-----------------------------------------------------------|
|-----------------------------------------------------------|
|-----------------------------------------------------------|
|--------8----(8)----------8--------------------------------|
|--------6----(6)----------6--------------------------------|
|--6-----6----(6)----------6-----------6-------6------------|
|
|  PM             PM|                        ~~~~~~~
|                                      |----3-----|
|  S  S  S  S  S  S  S  S  S  S  S  S  E     E    E      a
|----------17s20-------20s23s20-----------------------------|
|----16h19----------20----------22-20-19S===16--------------|
|----------------20------------------------------17----(17)S|
|-16--------------------------------------------------------|
|-----------------------------------------------------------|
|-----------------------------------------------------------|


[ Tab from: http://www.guitartabs.cc/tabs/b/black_dahlia_murder/moonlight_equilibrium_tab.html ]
                 PM---------------|                    PM                                PM--|
    Q            E     E     E     E     Q             E     E    +Q         Q           E    E
|---------------------------------------------------|----------------------------------------------|
|---------------------------------------------------|----------------------------------------------|
|---------------------------------------------------|----------------------------------------------|
|---------------------------------------------------|----------------------------------------------|
|---6------------------------------------6----------|--------6----(6)--------6---------------------|
|---4------------4-----4-----4-----4-----4----------|--4-----4----(4)--------4-----------4----4----|
|
|          T           T           T           T             T                     T
|   E      E     E     E     E     E     E     E       E     E     E    E    E     E     E    E
|---------------------------------------------------|----------------------------------------------|
|---------------------------------------------------|----------------------------------------------|
|--13-----20p===18----20p===16----20p===15----20p===|=13----20p===12---20p===9----20p====8h==11----|
|---------------------------------------------------|----------------------------------------------|
|---------------------------------------------------|----------------------------------------------|
|---------------------------------------------------|----------------------------------------------|

      PM------|            PM                  PM|
  Q   E   E E  E  Q        E  E +Q      Q      E  E
|----------------------|----------------------------|
|----------------------|----------------------------|
|-4---------------4----|------4-(4)-----4-----------|
|-2---------------2----|------2-(2)-----2-----------|
|-2---2---2-2--2--2----|---2--2-(2)-----2------2--2-|
|----------------------|----------------------------|
|
|     PM
| E E E   E E  E  E  E     E  E  E   E  E  E   E  E
|-------------12s16p12-|-/19p16---------------------|
|---9---/12p9----------|--------17------------------|
|-9---9----------------|------------16--------------|
|----------------------|---------------18S14--------|
|----------------------|---------------------\11h14-|
|----------------------|----------------------------|


   H.                                  Q
|--------------------------------------------------|
|--------------------------------------------------|
|--------------------------------------------------|
|--6-----------------------------------2-----------|
|--6-----------------------------------2-----------|
|--4-----------------------------------0-----------|
|
|  S  S  S  S  S  S  S  S  S  S  S  S  S  S  S  S
|--------------------------------------------------|
|--------------------------------------------------|
|--------------------------------------------------|
|-------------11----------------------11h13p11h14--|
|-11h13p11-14----14p11h13-11-13p11h14--------------|
|--------------------------------------------------|


   H.                                   Q
|--------------------------------------------------|
|--5-----------------------------------------------|
|--4-----------------------------------------------|
|--2-----------------------------------------------|
|---------------------------------------2----------|
|---------------------------------------0----------|
|
|  S  S  S  S  S  S  S  S  S  S  S   S  S  S  S  S
|--------------------------------------------------|
|--------------------------------------------------|
|-------------12h13-12h15-12h13p12-/15h16p15h16p12-|
|-11h13-11h14--------------------------------------|
|--------------------------------------------------|
|--------------------------------------------------|


   H.                                   Q
|--------------------------------------------------|
|--------------------------------------------------|
|--3-----------------------------------------------|
|--1-----------------------------------------------|
|--1------------------------------------2----------|
|---------------------------------------0----------|
|
|  S  S  S  S  S  S  S  S  S  S  S   S  S  S  S  S
|--------------------------------------------------|
|-------------14h16-14h17--------------------------|
|-13h15p13h16-------------13h15p13-/16h18p16h18p15-|
|--------------------------------------------------|
|--------------------------------------------------|
|--------------------------------------------------|


  Gtr I
   W
|---------------------------------------------------|
|--4------------------------------------------------|
|--x------------------------------------------------|
|--1------------------------------------------------|
|---------------------------------------------------|
|---------------------------------------------------|
|
| Gtr II
|  W
|---------------------------------------------------|
|--4------------------------------------------------|
|--x------------------------------------------------|
|--1------------------------------------------------|
|---------------------------------------------------|
|---------------------------------------------------|
|
| Gtr III
|  S  S  S   S  S  S  S  S  S  S  S   S  S  S  S  S
|---------------------------------------------------|
|------------------------------------------16h17h19-|
|-13h15p13-/16h18p16h18p15-13-15-13-/16-18----------|
|---------------------------------------------------|
|---------------------------------------------------|
|---------------------------------------------------|


   PM----|        PM----|     ~~~~PM--|
   S S E E E +E   E S S E     Q   S S E E E E E
|-------------------------|---------------------*|
|-------------------------|---------------------*|
|-------------------------|---------------------*|
|----------6-(6)\---------|---5-----------------*|
|-------------------------|-------------6h7-----*|
|--4-4-4-4--------4-4-4-4-|-------0-0-0-----4h7-*|
|
|  E   E Q    H               W
|-------------------------|---------------------*|
|-------------------------|---------------------*|
|-------------------------|---------------------*|
|-------------------------|---------------------*|
|--6----------------------|---------------------*|
|--4----------------------|---------------------*|
|
|  >
|  ~~~~~~~~~~~~~~~~~~~~~~~~~~~~~~
|  W                         +W
|-16----------------------|-(16)----------------*|
|-17----------------------|-(17)----------------*|
|-------------------------|---------------------*|
|-------------------------|---------------------*|
|-------------------------|---------------------*|
|-------------------------|---------------------*|



Duration Legend
---------------
W - whole; H - half; Q - quarter; E - 8th; S - 16th; T - 32nd; X - 64th; a - acciaccatura
+ - note tied to previous; . - note dotted; .. - note double dotted
Uncapitalized letters represent notes that are staccato (1/2 duration)
Irregular groupings are notated above the duration line
Duration letters will always appear directly above the note/fret number it represents the
duration for.  Duration letters with no fret number below them represent rests.  Multi-
bar rests are notated in the form Wxn, where n is the number of bars to rest for.  Low
melody durations appear below the staff

Tablature Legend
----------------
 h   - hammer-on
 p   - pull-off
 b   - bend
 pb  - pre-bend
 r   - bend release (if no number after the r, then release immediately)
 /\  - slide into or out of (from/to "nowhere")
 s   - legato slide
 S   - shift slide
 - natural harmonic
[n]  - artificial harmonic
n(n) - tapped harmonic
 ~   - vibrato
 tr  - trill
 T   - tap
 TP  - trem. picking
 PM  - palm muting
\n/  - tremolo bar dip; n = amount to dip
 \n  - tremolo bar down
 n/  - tremolo bar up
/n\  - tremolo bar inverted dip
 =   - hold bend; also acts as connecting device for hammers/pulls
 <> - volume swell (louder/softer)
 x   - on rhythm slash represents muted slash
 o   - on rhythm slash represents single note slash

Comments