Black Dahlia Murder - Funeral Thirst Chords & Tabs

 

Funeral Thirst Chords & Tabs

Black Dahlia Murder Chords & Tabs

Version: 1 Type: Bass Tab 0 ratings
1 star 2 stars 3 stars 4 stars 5 stars
comments

Funeral Thirst Bass Tab

   
The Black Dahlia Murder
album:unhallowed
song:funeral thirst
Tuning, Drop C, C,g,C,f
intro:
Riff 1 2x
|---------------------------------------|
|---------------------------------------|
|--5--5--5-1--1--140--5--5--5-1--1--140-|
|----0--0----0--0-------0--0----0--0----|

Riff 2 2x
|----------------------------------|
|----------------------------------|
|--5--5--8-7--7--7-4--4--8-5--5--7-|
|----0--0----0--0----0--0----0--0--|

Riff 3 
|---------------------------------|
|---------------------------------|
|--5--1-4--1-4-7-5--1-4--1--00-00-|
|---------------------------00-00-|

|---------------------------------|
|---------------------------------|
|--5--1-4--1-4-7-5--1-4--1--10-p--|
|-----------------------------5-3-|

Riff 2
Riff 3 ending with Riff 4 end:
Riff 4
|------------------------------------------------|
|------------------------------------------------|
|------------------------------10101010888877774-|
|--000000---000000--000000-----------------------|
[ Tab from: http://www.guitartabs.cc/tabs/b/black_dahlia_murder/funeral_thirst_btab.html ]
Riff 5
|-----------------------------------------------|
|-----------------------------------------------|
|-----------------------------------------------|
|--888---101010---000000000000----888----101010-|

Riff 6
|--------------------------------------|
|----------------------------------p---|
|------0------------------------5-54-1-|
|--00000000001/441---0000000000-0------|

Under solo
A.
|-------------------|
|-------------------|
|-------------------|
|--8888555500000000-|
4x
B.
|-----------------------------------------|
|-----------------------------------------|
|--1---3----------------------------------|
|-------00000000000000008-5/7-7-000-00-00-|
4x

Riff 7
|---------------------------------|
|---------------------------------|
|---------------------------------|
|--000000000000587000000000000352-|

Riff 3 twice ending with
|--------------------|
|--------------------|
|--------------------|
|--000-333-555-333-0-|
Pause
Riff 4
Riff 5
Riff 6
End with
|----------------|
|----------------|
|--1\------------|
|---------8750-0-|
Comments