Black Dahlia Murder - Apex Chords & Tabs

 

Apex Chords & Tabs

Black Dahlia Murder Chords & Tabs

Version: 2 Type: Tab 0 ratings
1 star 2 stars 3 stars 4 stars 5 stars
comments

Apex Tab

   
Artist:The Black Dahlia Murder
Album:Unhallowed
Song:Apex
Tab By:Rob Vargo(Decomposed)

#----------------------------------PLEASE NOTE---------------------------------#
#This file is the author's own work and represents their interpretation of the #
#song. You may only use this file for private study, scholarship, or research. #
#------------------------------------------------------------------------------#


riff 1: 3 times (0:00)
Gtr 1 Gtr 2 joins 2nd/3rd time                                               End R1
d||-----------------------------------------|------------------------------------||
a||-----------------------------------------|------------------------------------||
f||-----------------------------------------|------------------------------------||
c||-----------------------------------------|-------------------------~~-~-~-~-~-||
g||-----------------------------------------|------------------------~10-~-8-7---||
c||-0-0-0-5-0-0-4-0-0-5-0-0-8-7-5-7-10-8-7-8|0-0-0-5-0-0-4-0-0-5\(0)-8---7-------||
 || . . . . . . . . . . . . . . . .  . . . . . . . . . . . . . . .   . . . . . .
 ||riff 1: 3 times
 ||Gtr 2 first time only                                                     End R1
d||------------------------------------------------------------------------------||
a||------------------------------------------------------------------------------||
f||------------------------------------------------------------------------------||
c||--------------------------------------------------------------------~~--~-~-~-||
g||----------------------------------------0-0-0----------------------~10-~8-7---||
c||----------------------------------------0-0-0----------------------8---7------||

riff 2: (0:18)
Both  Gtrs                                  1/3                                            2
D||--------------------------------------------|--------------------------------------------|
a||--------------------------------------------|--------------------------------------------|
f||--------------------------------------------|--------------------------------------------|
c||-------------------------7-----7-----7-----5|------------------------7-----7-----7-----10|
g||-8-----8-----8-----7------------------------|8-----8-----8-----7-------------------------|
c||---0-0---0-0---0-0---0-0---0-0---0-0---0-0--|--0-0---0-0---0-0---0-0---0-0---0-0---0-0---|
    . . . . . . . . . . . . . . . . . . . . . . . . . . . . . . . . . . . . . . . . . . .  .    
[ Tab from: http://www.guitartabs.cc/tabs/b/black_dahlia_murder/apex_tab_ver_2.html ]
   Gtr 1                                           4
D||-------------------------------------------------||
a||-------------------------------------------------||
f||-------------------------------------------------||
c||-------------------------7-----7-----7-5---------||
g||-8-----8-----8-----7---------------------8-7-8-10||
c||---0-0---0-0---0-0---0-0---0-0---0-0-------------||
 || . . . . . . . . . . . . . . . . . . . . . . .  .||
 ||                                                 ||
 ||Gtr 2                                           4||
D||-------------------------------------------------||
a||-------------------------------------------------||
f||-------------------------------------------------||
c||-------------------------7-----7-----5-3---------||
g||-8-----8-----8-----7---------------------7-5-7--8||
c||---0-0---0-0---0-0---0-0---0-0---0-0-------------||
    . . . . . . . . . . . . . . . . . . . . . . .  .

Play Riff 1: 2 Times (0:30)


riff 3: 3 and a half times (0:43)
Gtr 1                                 ||end here 4th time
D||-------------------------------------------------------------------------||
a||-------------------------------------------------------------------------||
f||-------------------------------------------------------------------------||
c||-888-777-888---------777--------777-777--------777----------------777-888||
g||-------------888-888-----101010---------101010-----777-777-101010--------||
c||-------------------------------------------------------------------------||
 || ... ... ... ... ... ...  . . . ... ... . . .  ... ... ...  . . . ... ...
 || 
 ||Gtr 2 
D||-------------------------------------------------------------------------||
a||-------------------------------------------------------------------------||
f||-------------------------------------------------------------------------||
c||-------------------------------------------------------------------------||
g||-------------------------------------------------------------------------||
c||-555555555555555-8888888888888888888-000000000000000000000000000000000000||
    ............... ................... ....................................
play Riff 2: (1:04)
play Riff 1: 2 times (1:16)
play Riff 3: 1 and a half times (1:29)


Riff 4: 4 times(1:38)
Gtr 1                                    |ending
D||--------------------------------------------------------------||
a||--------------------------------------------------------------||
f||--------------------------------------------------------------||
c||-7---------p---p----3---7---------p-h---h-----h-----p-----p---||
g||-5--------5-4-5-4---1-5-5--------5-4-5-0-1-1-1-4-4-4-1-1-1-0-0||
c||---000000-------------5---000000-------0-1-1-1-4-4-4-1-1-1-0-0||
    . ......               . ......       . . . . . . . . . . . .
                      2nd time
Riff 5:2times(2:01)(0-0-0--0-0-0)
Gtr 1              (0-0-0--0-0-0)
D||------------------------------------------------------||
a||------------------------------------------------------||
c||------------------------------------------------------||
f||------------------------------------------------------||
g||-0-----0----0----0------0------0-----0----0----5-4-5--||
C||-000-5-00-4-00-5-000000-000000-000-5-00-4-00-5-------8||
    ... . .. . .. . ...... ...... ... . .. . .. . . . . .
Play Riff 4: 2 times+ending (2:13)

Riff 6: 4 times (2:27)
Gtr 1
D||--------------------------------------------------------------------------||
a||--------------------------------------------------------------------------||
f||--------------------------------------------------------------------------||
c||--h-p------------h-p-------h-p-------h-p------------h-----h-----p-----p---||
g||-0-1-0-00000000-0-1-0-000-0-1-0-000-0-1-0-00000000-0-1-1-1-4-4-4-1-1-1-0-0||
c||-0-1-0-00000000-0-1-0-000-0-1-0-000-0-1-0-00000000-0-1-1-1-4-4-4-1-1-1-0-0||
    . . . ........ . . . ... . . . ... . . . ........ . . . . . . . . . . . .
Fade out with riff 3 (2:51)

Questions/Comments?   Email me SauronSatan666@hotmail.com
Comments