Black Dahlia Murder - All My Best Friends Are Bullets Chords & Tabs

 

All My Best Friends Are Bullets Chords & Tabs

Black Dahlia Murder Chords & Tabs

Version: 1 Type: Tab

All My Best Friends Are Bullets Tab

   
Band- Black Dahlia Murder
Song- All My Best Friends Are Bullets

Tuning: Select a Tuning... ( C  G  C  F  a  D)

This songs pretty damn simple. I dont think you need to see the tab, 
really. Just listen to it.


  order:
  riff 1  riff 1  riff 5
  riff 2  riff 2  riff 6
  riff 3  riff 3  riff 5
  riff 4  riff 4  riff 6
  
  
[ Tab from: http://www.guitartabs.cc/tabs/b/black_dahlia_murder/all_my_best_friends_are_bullets_tab.html ]
  riff 1
 D|----------------||
 A|----------------||
 F|--------8--7--8-||
 C|---10-----------||x4
 G|----------------||
 C|----------------||
  riff 2
 D|----------------||
 A|----------------||
 F|-------8--7--8--||
 C|---9------------||x4
 G|----------------||
 C|----------------||
  riff 3
 D|----------------||
 A|----------------||
 F|-------8--7--8--||
 C|---6------------||x4
 G|----------------||
 C|----------------||
  riff 4
 D|-------------------------------------------------------------------||
 A|-------------------------------------------------------------------||
 F|------8--7--8------8--7--8-----8--7--8-----8--7--------------------||
 C|---5------------5-----------6-----------6---------9/10-------------||
 G|-------------------------------------------------------------------||
 C|-------------------------------------------------------------------||

  riff 5
 D|-------------------------------------------------------------------||
 A|-------------------------------------------------------------------||
 F|-----9--7--9------9--7--9-------9--7--9-------9--7--9--------------||
 C|--7------------7------------10------------10-----------------------||
 G|-------------------------------------------------------------------||
 C|-------------------------------------------------------------------||
  riff 6
 D|-------------------------------------------------------------------||
 A|-------------------------------------------------------------------||
 F|-----10--10--10--10---7---7---7---7--------------------------------||
 C|---12--12--12--12---9---9---9---9----------------------------------||
 G|-------------------------------------------------------------------||
 C|-------------------------------------------------------------------||