Black Crowes - She Talks To Angels Chords & Tabs

 

She Talks To Angels Chords & Tabs

Black Crowes Chords & Tabs

Version: 7 Type: Tab 0 ratings
1 star 2 stars 3 stars 4 stars 5 stars
comments

She Talks To Angels Tab

   
-----------------------------------------------------------------------------
			     she talks to angels(intro)- the black crowes
-----------------------------------------------------------------------------

standard tunning

*acoustic guitar

slow ballad =  80



                                                   E
e|--------0----------0---------0---|---------------0-----|
B|---4-5----4\2--0-----------0-----|---------------0-----|
G|----------------------0-1-------1|-1--0----------0-----|
D|---------------------------------|-------0-------0-----|
A|---------------------------------|---------------0-----|
E|---------------------------------|---------------0-----|


                                           E
e|------0--------0--------0-----|----------0---------0--0----|
B|-4-5----4\2--0--------0-------|----------0---------0--0----|
G|-----------------0-1-------1--|--1---0---0---------0--0----|
D|------------------------------|----------0---------0--0----|
A|------------------------------|----------0---------0--0----|
E|------------------------------|----------0---------0--0----|


[ Tab from: http://www.guitartabs.cc/tabs/b/black_crowes/she_talks_to_angels_tab_ver_7.html ]
                    A6/9  E  A6/9  E  
e|-0-------0---0--0--2----0---2----0---|-------------------------|
B|-0-------0---0--0--0----0---0----0---|-------------------------|
G|-0-------0---1--0--1----1---1----0---|--------+12--------+19---|
D|-0-------0---------0----2---0----0---|--------+12--------+19---|
A|-0-------0---------2--------2----0---|--------+12--------+19---|
E|-0-------0---------0--------0----0---|--------+12--------------|
 

     E         A6/9  E A6/9 E                                       
e|---0----0--0---2---0--2---0--|-------------------------------|
B|---0----0--0---0---0--0---0--|--------0------2----0----0-----|
G|---0----0--0---1---0--1---0--|------0---0------0----0--------|
D|---0-----------0---0--0---0--|--2\4-------0------0----0------|
A|---0-----------2------2---0--|-------------------------------|
E|---0-----------0------0---0--|-------------------------------|


                 E          A6/9 E   A6/9  E  
e|---------------0---0--0----2---0---2-----0----|
B|---------------0---0--0----0---0---0-----0----|
G|---------------0---0--0----1---0---1-----0----|
D|----2---0------0-----------0---0---0-----0----|
A|---------------0-----------2-------2-----0----|
E|---------------0-----------0-------0-----0----|


| /  slide up
| \  slide down
| h  hammer-on
| p  pull-off
| ~  vibrato
| +  harmonic
| x  Mute note
===============================================================================
Comments