Black Crowes - She Talks To Angels Chords & Tabs

 

She Talks To Angels Chords & Tabs

Black Crowes Chords & Tabs

Version: 6 Type: Tab 0 ratings
1 star 2 stars 3 stars 4 stars 5 stars
comments

She Talks To Angels Tab

   
----------------------------------------------------------------------
		  She Talks To Angels - Black Crowes
----------------------------------------------------------------------

Transcribed by Derreck


This is an awesome song on the acoustic, sounds good alone and even better with 
two guitars. You'll have to listen to the song for the rythym (obviously). If your a 
beginner, e-mail me and i'll send you a recording of how I do the intro and chorus 
to get you rolling. 

This song is in Open E tuning. Tune your 5th string (2nd from top) up a whole step 
from A to B, 4th string up a whole step from D to E, and your 3rd string a half 
step from G to G#.
	

      h - hammer on 
      p - pull off 
      b - bend string
      r - release bend
      s - slide
      v - downward strum
      ^ - upward strum
      <>- Natural Harmonics
---------------------------------------------------------------------

Intro:

e|-----5-------0-------0---------0-------5-------0-------0---------0-|
B|-4s5---4p2-0-------0-----------0---4s5---4p2-0-------0-----------0-|
G|---------------0h1-----1-1p0---0-----------------0h1-----1-1p0---0-|
D|-----------------------------0-0-------------------------------0-0-|
A|-------------------------------------------------------------------|
E|-------------------------------------------------------------------|

   v ^ v  v v ^ v v v v          v v ^ v v v v
e|-0-0-0--0-0-0-0-0-0-0------12---7---0-0-0-0-0-0-0------------------|
B|-0-0-0--0-0-0-0-0-0-0------12---7---0-0-0-0-0-0-0------------------|
G|-0-0-0--0-0-0-1-0-1-0------12---7---0-0-0-1-x-1-0------------------|
D|-0-0-0--0-0---2-0-2-0------12---7---0-0---2-x-2-0------------------|
A|-0-0-0--0-----0-0-0-0------12---7---0-----0-0-0-0------------------|
E|-0-0-0--0-----0-0-0-0------12---7---0-----0-0-0-0------------------|

                                 v v ^ v v v v
e|-------------------------------0-0-0-0-0-0-0-----------------------|
B|-------------2p0---------0-----0-0-0-0-0-0-0-----------------------|
G|-----0-2p0---------2p0---------0-0-0-1-x-1-0-----------------------|
D|-2s4-------0-----0-----0---2-0-0-0---2-x-2-0-----------------------|
A|-------------------------------0-----0-0-0-0-----------------------|
E|-------------------------------0-----0-0-0-0-----------------------|

                                 v v v ^ v v v v
e|-0---0---0---0---0---0---0---0-0-0-0-0-0-0-0-0---------------------|
B|---5---4-----------------------0-0-0-0-0-0-0-0---------------------|
G|-----------5---3---1---0-------0-0-0-0-1-0-1-0---------------------|
D|---------------------------0---0-0-0---2-0-2-0---------------------|
A|---------------------------------0-----0-0-0-0---------------------|
E|---------------------------------0-----0-0-0-0---------------------|

Verse:
                              v ^ v  v v ^ v v v v
e|----------------------------0-0-0--0-0-0-0-0-0-0-------------------|
B|----------------------------0-0-0--0-0-0-0-0-0-0-------------------|
G|----------------------------0-0-0--0-0-0-1-x-1-0-------------------|
D|----------------------------0-0-0--0-0---2-x-2-0-------------------|
A|----------------------------0-0-0--0-----0-0-0-0-------------------|
E|----------------------------0-0-0--0-----0-0-0-0-------------------|
  She never mentions the word addiction

                              v ^ v  v v ^ v v v v
e|----------------------------0-0-0--0-0-0-0-0-0-0-------------------|
B|----------------------------0-0-0--0-0-0-0-0-0-0-------------------|
G|----------------------------0-0-0--0-0-0-1-x-1-0-------------------|
D|----------------------------0-0-0--0-0---2-x-2-0-------------------|
A|----------------------------0-0-0--0-----0-0-0-0-------------------|
E|----------------------------0-0-0--0-----0-0-0-0-------------------|
  In          certain        company

                              v ^ v  v v ^ v v v v
e|----------------------------0-0-0--0-0-0-0-0-0-0-------------------|
B|----------------------------0-0-0--0-0-0-0-0-0-0-------------------|
G|----------------------------0-0-0--0-0-0-1-x-1-0-------------------|
D|----------------------------0-0-0--0-0---2-x-2-0-------------------|
A|----------------------------0-0-0--0-----0-0-0-0-------------------|
E|----------------------------0-0-0--0-----0-0-0-0-------------------|
  Yes, she'll tell you shes an orphan
[ Tab from: http://www.guitartabs.cc/tabs/b/black_crowes/she_talks_to_angels_tab_ver_6.html ]
                              v ^ v  v v ^ v v v v
e|----------------------------0-0-0--0-0-0-0-0-0-0-------------------|
B|----------------------------0-0-0--0-0-0-0-0-0-0-------------------|
G|----------------------------0-0-0--0-0-0-1-x-1-0-------------------|
D|----------------------------0-0-0--0-0---2-x-2-0-------------------|
A|----------------------------0-0-0--0-----0-0-0-0-------------------|
E|----------------------------0-0-0--0-----0-0-0-0-------------------|
  After   ya   meet    her   family

Chorus: (No lyrics in the first chorus)
                   v v v ^ v v v v v v v ^ v v v v v v v ^ v v v v
e|-0-0-0-0-0-0-0-0-7-7-7-7-7-7-7-7-5-5-5-5-5-5-5-5-0-0-0-0-0-0-0-0---|
B|-5-5-5-5-5-5-5-5-7-7-7-7-7-7-7-7-5-5-5-5-5-5-5-5-0-0-0-0-0-0-0-0---|
G|-0-0-0-0-0-0-0-0-7-7-7-7-7-7-7-7-5-5-5-5-5-5-5-5-0-0-0-0-1-x-1-0---|
D|-0-0-0-0-0-0-0-0-7-7-7---7-7-7-7-5-5-5---5-5-5-5-0-0-0---2-x-2-0---|
A|-0-0-0-0-0-0-0-0-7-7-----7-7-7-7-5-5-----5-5-5-5-0-0-----0-0-0-0---|
E|-0-0-0-0-0-0-0-0-7-7-----7-7-7-7-5-5-----5-5-5-5-0-0-----0-0-0-0---|

                   v v v ^ v v v v v v v ^ v v v v v v v ^ v v v v
e|-0-0-0-0-0-0-0-0-7-7-7-7-7-7-7-7-5-5-5-5-5-5-5-5-0-0-0-0-0-0-0-0---|
B|-5-5-5-5-5-5-5-5-7-7-7-7-7-7-7-7-5-5-5-5-5-5-5-5-0-0-0-0-0-0-0-0---|
G|-0-0-0-0-0-0-0-0-7-7-7-7-7-7-7-7-5-5-5-5-5-5-5-5-0-0-0-0-1-x-1-0---|
D|-0-0-0-0-0-0-0-0-7-7-7---7-7-7-7-5-5-5---5-5-5-5-0-0-0---2-x-2-0---|
A|-0-0-0-0-0-0-0-0-7-7-----7-7-7-7-5-5-----5-5-5-5-0-0-----0-0-0-0---|
E|-0-0-0-0-0-0-0-0-7-7-----7-7-7-7-5-5-----5-5-5-5-0-0-----0-0-0-0---|

     v v ^ v v v v
e|-12--7--0-0-0-0-0-0-0----------------------------------------------|
B|-12--7--0-0-0-0-0-0-0----------------------------------------------|
G|-12--7--0-0-0-1-0-1-0----------------------------------------------|
D|-12--7--0-0---2-0-2-0----------------------------------------------|
A|-12--7--0-----0-0-0-0----------------------------------------------|
E|-12--7--0-----0-0-0-0----------------------------------------------|

2nd Verse: (Same strumming pattern)
She paints her eyes as black as night now
She pulls those shades down tight
Yea she gives a smile when the pain comes
The pain gonna make everything alright

Chorus: (Start in the middle of the 050000)
She says she talks to angels, they call her out by her name
Oh yea she talks to angels, says they call her out by her name

3rd Verse:
She keeps a lock of hair in her pocket
She wears a cross around her neck
Yes the hair is from a little boy
And the cross from someone she has not met.....not yet

Chorus:
She says she talks to angels, says they all know her name
Oh yea she talks to angels, says they call her out by her name

(Now skip the Natural harmonics, 
 and go straight to the Bridge, which is something like this)

Bridge: (Sing while your strumming the A)
                       A
e|-0-0-0-0-0-0-0--5-5-5-5-5-5-0-0-0-0-0-0--------------------------|
B|-5-5-5-5-5-5-5--5-5-5-5-5-5-0-5-5-5-5-5--------------------------|
G|-0-0-0-0-0-0-0--5-5-5-5-5-5-0-0-0-0-0-0--------------------------|
D|-0-0-0-0-0-0-0--5-5-5-5-5-5-0-0-0-0-0-0--------------------------|
A|-0-0-0-0-0-0-0--5-5-5-5-5-5-0-0-0-0-0-0--------------------------|
E|-0-0-0-0-0-0-0--5-5-5-5-5-5-0-0-0-0-0-0--------------------------|

 She don't know no lover
 None that i've ever seen
 To her that ain't nothin'
 But to me, it means, everything. (on this one, stretch the A out 
                                                    with the words)
 (Replace the 050000's with the main riff here)
   v v v ^ v v v v     v v v ^ v v v v
e|-0-0-0-0-0-0-0-0---12--7--0-0-0-0-0-0-0-0------------------------|
B|-0-0-0-0-0-0-0-0---12--7--0-0-0-0-0-0-0-0------------------------|
G|-0-0-0-0-1-x-1-0---12--7--0-0-0-0-1-0-1-0------------------------|
D|-0-0-0---2-x-2-0---12--7--0-0-0---2-0-2-0------------------------|
A|-0-0-----0-0-0-0---12--7--0-0-----0-0-0-0------------------------|
E|-0-0-----0-0-0-0---12--7--0-0-----0-0-0-0------------------------|

                                 v v ^ v v v v
e|-------------------------------0-0-0-0-0-0-0---------------------|
B|-------------2p0---------0-----0-0-0-0-0-0-0---------------------|
G|-----0-2p0---------2p0---------0-0-0-1-x-1-0---------------------|
D|-2s4-------0-----0-----0---2-0-0-0---2-x-2-0---------------------|
A|-------------------------------0-----0-0-0-0---------------------|
E|-------------------------------0-----0-0-0-0---------------------|

                                 v v v ^ v v v v
e|-0---0---0---0---0---0---0---0-0-0-0-0-0-0-0-0-------------------|
B|---5---4-----------------------0-0-0-0-0-0-0-0-------------------|
G|-----------5---3---1---0-------0-0-0-0-1-0-1-0-------------------|
D|---------------------------0---0-0-0---2-0-2-0-------------------|
A|---------------------------------0-----0-0-0-0-------------------|
E|---------------------------------0-----0-0-0-0-------------------|

Repeat the 2nd Verse here.

Then Repeat chorus twice, with lotsa feeling, I want you tearing up by now.
Add 2 extra B (7's) A (5's) runs in the very last chorus, 
get the lyrics from the song. Just extra ooooh's n stuff.

Well thats about it, i know this is messy,
but its my first attempt at tableture.

Comments would be appreciated..

--Derreck
Comments