Black Crowes - She Talks To Angels Chords & Tabs

 

She Talks To Angels Chords & Tabs

Black Crowes Chords & Tabs

Version: 2 Type: Tab 1 rating
1 star 2 stars 3 stars 4 stars 5 stars
comments

She Talks To Angels Tab

   
##################################################################################
# This file is the author's own work and represents their interpretation of the  #
# song. You may only use this file for private study, scholarship, or research.  #
##################################################################################


Black Crowes - She Talks to Angels

This song is normally played in Open F tuning, but you don't really
need that since all that does in the song is make the harmonics an
A and C chord. So I've transposed it to standard tuning, still sounds
perfect, and play a  bridged 7th and 9th fret in harmonics instead
of the chords. The d's and u's in the intro indicate strum direction
and should be followed during the riff that is played throughout the
song. Have fun.

                 ebgdae
CHORDS: B [02444x]
E [001220]
Esus4 [002220]
A[022200]

INTRO
-----
                                                E
 E|------0---------0--+---------0---------+-----0------------+ (Repeat)
 B|--4h5---4/2--0-----|------0------------|-----0------------|
 G|-------------------|--1h2------2--2p1--|-----1------------|
 D|-------------------|-------------------|--2--2------------|
 A|-------------------|-------------------|-----2------------|
 E|-------------------+-------------------+-----0------------+

                                       
|--0-0-0---0-0-0---+--0--0------------+---7-----9--------+------------------|
|--0-0-0---0-0-0---|--0--0------------|---7-----9--------|------------------|
|--1-1-1---1-2-1---|--2--1------------|---7-----9--------|------------------|
|--2-2-2---2-2-2---|--2--2------------|---7-----9--------|------------------|
|--2-2-2---2-2-2---|--2--2------------|---7-----9--------|------------------|
|--0-0-0---0-0-0---+--0--0------------+---7-----9--------+------------------|
   d u d   d d u      d  u           (in natural harmonics)
[ Tab from: http://www.guitartabs.cc/tabs/b/black_crowes/she_talks_to_angels_tab_ver_2.html ]
|-----------0--0---+--0--0--0--0------+------------------+------------------|
|-----------0--0---|--0--0--0--0------|-------------2p0--|----------0-------|
|-----------1--1---|--2--1--2--1------|-------4p1--------|-1--4p1-----------|
|-----------2--2---|--2--2--2--2------|-4h6-6-----4------|--------4---4-----|
|-----------2--2---|--2--2--2--2------|------------------|------------------|
|-----------0--0---+--0--0--0--0------+------------------+------------------|
            d  d      d  u  d  u   


|-------0-0-0-------+--0--0--0--0------+-0---0---0---0----+-0---0---0---0----|
|-------0-0-0-------|--0--0--0--0------|---5---4----------|------------------|
|-------1-1-1-------|--2--1--2--1------|-----------6---4--|---2---1----------|
|-------2-2-2-------|--2--2--2--2------|------------------|-----------2------|
|-------2-2-2-------|--2--2--2--2------|------------------|------------------|
|-------0-0-0-------+--0--0--0--0------+------------------+------------------|
        d u d          d  u  d  u         

|-------0-0-0-------+--0--0--0--0------+
|-------0-0-0-------|--0--0--0--0------|
|-------1-1-1-------|--2--1--2--1------|
|-------2-2-2-------|--2--2--2--2------|
|-------2-2-2-------|--2--2--2--2------|
|-------0-0-0-------+--0--0--0--0------+
        d u d          d  u  d  u


                         E Esus4 E Esus4 E         
Never mentions the word addiction

           E Esus4 E Esus4 E              
in certain company

                                E Esus4 E Esus4 E        
yeah, she'll tell you she's an orphan

                   E Esus4 E Esus4 E
after you meet her family

BRIDGE: [Esus4 B A E Esus4 E Esus4 E
         Esus4 B A E Esus4 E Esus4 E 7th & 9th Fret natural harmonics
         E Esus4 E Esus4 E]

Comments