Black Crowes - Remedy Chords & Tabs

 

Remedy Chords & Tabs

Black Crowes Chords & Tabs

Version: 2 Type: Bass Tab 0 ratings
1 star 2 stars 3 stars 4 stars 5 stars
comments

Remedy Bass Tab

Black Crowes "Remedy"  Tabbed by :Jay 

This is a fairly simple song.....but the Black Crowes rule so it doesn't 
really matter how simple it is. I was tired of waiting for some more Crowes 
tabs so I just decided to do it myself.

Intro:

G---------------------------------l   2X
D---------------------------------l  
A----8-7---------6-5--------------l
E---------8----------6------------l

Verses
Riff 1:
G----------------------------------------------l
D----------------------------------------------l   4X
A----------------------------------------------l
E---8-8-x-x-x-8-8-6-6/8-8----------------------l
[ Tab from: http://www.guitartabs.cc/tabs/b/black_crowes/remedy_btab_ver_2.html ]
Riff 2 (when lyrics come in "Baby Baby why can't you sit still?"):
G--------------------------------------------l
D--------------------------------------------l 2X
A--------------------------------------------l
E---6-6-x-x-x-6-x-6-4-4/6-6-x-x-x-6-x-6------l

Riff 1
Riff 2
Riff 1
Intro

Chorus:(Can I have some Remedy?)
G------------------------------------------------l
D------------------------------------------------l
A---------4-4---------------6-6-6----------------l
E---6-6-----------4-4----------------------------l

Well...there you have it......for all you Black Crowes fans out there to 
enjoy. 

"I lose myself...I forget myself...sometimes I fault myself..yes i might 
fight myself but then I make amense....I freeze myself....rain on 
myself...ok, so I stone myself and I might even find myself but then 
again....What happens if I do? So unzip my pride...baby open me up wide so I 
can show this to you" Chris Robinson

Jay  AtomicMetalHead
Comments