Black Crowes - Miracle To Me Chords & Tabs

 

Miracle To Me Chords & Tabs

Black Crowes Chords & Tabs

Version: 1 Type: Tab 0 ratings
1 star 2 stars 3 stars 4 stars 5 stars
comments

Miracle To Me Tab

   
##################################################################################
# This file is the author's own work and represents their interpretation of the  #
# song. You may only use this file for private study, scholarship, or research.  #
##################################################################################

Black Crowes
Miracle to Me


Capo at the 2nd fret


Intro:
e|-----0---0--------0---0-|------0---0---------0-----|-----0---0-------0---0--------0--|
B|---1---3---1---0----3---|----0---3---0---0-3---0---|---1---3---1---1---3---1-----1---|
G|-2-----------1----------|--0-----------------------|----------------------------0----|
D|------------------------|--------------4---------4-|-3-----------2-------------2-----|
A|------------------------|--------------------------|--------------------------3------|
E|------------------------|--------------------------|-------------------------0-------|
  -start                     -start                  -start



Then 2x

    A7sus4     G 
e|---3---3---3--3--|
B|---3---3---3--3--|
G|---0---0---0--0--|
D|-0H2-0H2-0H2--0--|
A|--------------2--|
E|--------------3--|



Solo: (with delay)
E|-------------------------------12------12------|
B|-----10-10v----12b14r12p10--10----10------10v--|
G|-9s11------------------------------------------|
D|-----------------------------------------------|
A|-----------------------------------------------|
E|-----------------------------------------------|
[ Tab from: http://www.guitartabs.cc/tabs/b/black_crowes/miracle_to_me_tab.html ]
E|---------------------------------------------------------------------|
B|-19r-17--19r17-------------------------------------------------------|
G|------------------14v---14-14-16-14-14-14----------------------------|
D|------------------------------------------16-14-12v--12-12-12-12/14v-|
A|---------------------------------------------------------------------|
E|---------------------------------------------------------------------|


E|--------------------------------------------------------------------|
B|------15----15---17b19----19r-19r-19r17------15-17-15---------------|
G|-11/14----14--14--------------------------------------16-14v----14v-|
D|-------------------------------------------------------------16-----|
A|--------------------------------------------------------------------|
E|--------------------------------------------------------------------|


E|------------------------------------------------------------------------|
B|----------15-16-17-17b19-------------------15-16-17-------17------------|
G|-14-16b18----------------14v----14v-----14---------16b18----16b18r16b18-|
D|-----------------------------16------16---------------------------------|
A|------------------------------------------------------------------------|
E|------------------------------------------------------------------------|



Chorus: 
Dm Dsus4
Be my secret
C  Csus4
Be my joy
Bb   Bbm        F
Be a miracle to me

Dm Dsus4
Well, be my lover
C  Csus4
Baby, be my friend
Bb   Bbm        F
Be a miracle to me
Bb   Bbm         F
Be a miracle to  me



Chords:

A7sus4   G       Bb    Am7    Csus4    Dm     Dsus4    Bbm      F
   3 3 1011311
   3 3 3113321
   0 0       3002232
   2 0       0220033
   x 2       xxxxxxx
   x x       xxxxxxx




Yost with the Most
Comments